  0
SECTION
  2
HEADER
  9
$ACADVER
  1
AC1015
  9
$ACADMAINTVER
 70
    18
  9
$DWGCODEPAGE
  3
ANSI_1252
  9
$INSBASE
 10
0.0
 20
0.0
 30
0.0
  9
$EXTMIN
 10
-207.2698967243426
 20
-532.6386107684096
 30
-0.0015258207003583
  9
$EXTMAX
 10
205.2896125443392
 20
258.9867560183475
 30
0.0000000349246037
  9
$LIMMIN
 10
0.0
 20
0.0
  9
$LIMMAX
 10
420.0
 20
297.0
  9
$ORTHOMODE
 70
     0
  9
$REGENMODE
 70
     1
  9
$FILLMODE
 70
     1
  9
$QTEXTMODE
 70
     0
  9
$MIRRTEXT
 70
     0
  9
$LTSCALE
 40
1.0
  9
$ATTMODE
 70
     1
  9
$TEXTSIZE
 40
2.5
  9
$TRACEWID
 40
1.0
  9
$TEXTSTYLE
  7
Standard
  9
$CLAYER
  8
0
  9
$CELTYPE
  6
ByLayer
  9
$CECOLOR
 62
   256
  9
$CELTSCALE
 40
1.0
  9
$DISPSILH
 70
     0
  9
$DIMSCALE
 40
1.0
  9
$DIMASZ
 40
2.5
  9
$DIMEXO
 40
0.625
  9
$DIMDLI
 40
3.75
  9
$DIMRND
 40
0.0
  9
$DIMDLE
 40
0.0
  9
$DIMEXE
 40
1.25
  9
$DIMTP
 40
0.0
  9
$DIMTM
 40
0.0
  9
$DIMTXT
 40
2.5
  9
$DIMCEN
 40
2.5
  9
$DIMTSZ
 40
0.0
  9
$DIMTOL
 70
     0
  9
$DIMLIM
 70
     0
  9
$DIMTIH
 70
     0
  9
$DIMTOH
 70
     0
  9
$DIMSE1
 70
     0
  9
$DIMSE2
 70
     0
  9
$DIMTAD
 70
     1
  9
$DIMZIN
 70
     8
  9
$DIMBLK
  1

  9
$DIMASO
 70
     1
  9
$DIMSHO
 70
     1
  9
$DIMPOST
  1

  9
$DIMAPOST
  1

  9
$DIMALT
 70
     0
  9
$DIMALTD
 70
     3
  9
$DIMALTF
 40
0.03937007874016
  9
$DIMLFAC
 40
1.0
  9
$DIMTOFL
 70
     1
  9
$DIMTVP
 40
0.0
  9
$DIMTIX
 70
     0
  9
$DIMSOXD
 70
     0
  9
$DIMSAH
 70
     0
  9
$DIMBLK1
  1

  9
$DIMBLK2
  1

  9
$DIMSTYLE
  2
ISO-25
  9
$DIMCLRD
 70
     0
  9
$DIMCLRE
 70
     0
  9
$DIMCLRT
 70
     0
  9
$DIMTFAC
 40
1.0
  9
$DIMGAP
 40
0.625
  9
$DIMJUST
 70
     0
  9
$DIMSD1
 70
     0
  9
$DIMSD2
 70
     0
  9
$DIMTOLJ
 70
     0
  9
$DIMTZIN
 70
     8
  9
$DIMALTZ
 70
     0
  9
$DIMALTTZ
 70
     0
  9
$DIMUPT
 70
     0
  9
$DIMDEC
 70
     2
  9
$DIMTDEC
 70
     2
  9
$DIMALTU
 70
     2
  9
$DIMALTTD
 70
     3
  9
$DIMTXSTY
  7
Standard
  9
$DIMAUNIT
 70
     0
  9
$DIMADEC
 70
     0
  9
$DIMALTRND
 40
0.0
  9
$DIMAZIN
 70
     0
  9
$DIMDSEP
 70
    44
  9
$DIMATFIT
 70
     3
  9
$DIMFRAC
 70
     0
  9
$DIMLDRBLK
  1

  9
$DIMLUNIT
 70
     2
  9
$DIMLWD
 70
    -2
  9
$DIMLWE
 70
    -2
  9
$DIMTMOVE
 70
     0
  9
$LUNITS
 70
     2
  9
$LUPREC
 70
     4
  9
$SKETCHINC
 40
1.0
  9
$FILLETRAD
 40
0.0
  9
$AUNITS
 70
     0
  9
$AUPREC
 70
     0
  9
$MENU
  1
.
  9
$ELEVATION
 40
0.0
  9
$PELEVATION
 40
0.0
  9
$THICKNESS
 40
0.0
  9
$LIMCHECK
 70
     0
  9
$CHAMFERA
 40
0.0
  9
$CHAMFERB
 40
0.0
  9
$CHAMFERC
 40
0.0
  9
$CHAMFERD
 40
0.0
  9
$SKPOLY
 70
     0
  9
$TDCREATE
 40
2460286.622500000
  9
$TDUCREATE
 40
2460286.330833334
  9
$TDUPDATE
 40
2460286.637789352
  9
$TDUUPDATE
 40
2460286.346122686
  9
$TDINDWG
 40
0.0048032407
  9
$TDUSRTIMER
 40
0.0048032407
  9
$USRTIMER
 70
     1
  9
$ANGBASE
 50
0.0
  9
$ANGDIR
 70
     0
  9
$PDMODE
 70
     0
  9
$PDSIZE
 40
0.0
  9
$PLINEWID
 40
0.0
  9
$SPLFRAME
 70
     0
  9
$SPLINETYPE
 70
     6
  9
$SPLINESEGS
 70
     8
  9
$HANDSEED
  5
BA3E
  9
$SURFTAB1
 70
     6
  9
$SURFTAB2
 70
     6
  9
$SURFTYPE
 70
     6
  9
$SURFU
 70
     6
  9
$SURFV
 70
     6
  9
$UCSBASE
  2

  9
$UCSNAME
  2

  9
$UCSORG
 10
0.0
 20
0.0
 30
0.0
  9
$UCSXDIR
 10
1.0
 20
0.0
 30
0.0
  9
$UCSYDIR
 10
0.0
 20
1.0
 30
0.0
  9
$UCSORTHOREF
  2

  9
$UCSORTHOVIEW
 70
     0
  9
$UCSORGTOP
 10
0.0
 20
0.0
 30
0.0
  9
$UCSORGBOTTOM
 10
0.0
 20
0.0
 30
0.0
  9
$UCSORGLEFT
 10
0.0
 20
0.0
 30
0.0
  9
$UCSORGRIGHT
 10
0.0
 20
0.0
 30
0.0
  9
$UCSORGFRONT
 10
0.0
 20
0.0
 30
0.0
  9
$UCSORGBACK
 10
0.0
 20
0.0
 30
0.0
  9
$PUCSBASE
  2

  9
$PUCSNAME
  2

  9
$PUCSORG
 10
0.0
 20
0.0
 30
0.0
  9
$PUCSXDIR
 10
1.0
 20
0.0
 30
0.0
  9
$PUCSYDIR
 10
0.0
 20
1.0
 30
0.0
  9
$PUCSORTHOREF
  2

  9
$PUCSORTHOVIEW
 70
     0
  9
$PUCSORGTOP
 10
0.0
 20
0.0
 30
0.0
  9
$PUCSORGBOTTOM
 10
0.0
 20
0.0
 30
0.0
  9
$PUCSORGLEFT
 10
0.0
 20
0.0
 30
0.0
  9
$PUCSORGRIGHT
 10
0.0
 20
0.0
 30
0.0
  9
$PUCSORGFRONT
 10
0.0
 20
0.0
 30
0.0
  9
$PUCSORGBACK
 10
0.0
 20
0.0
 30
0.0
  9
$USERI1
 70
     0
  9
$USERI2
 70
     0
  9
$USERI3
 70
     0
  9
$USERI4
 70
     0
  9
$USERI5
 70
     0
  9
$USERR1
 40
0.0
  9
$USERR2
 40
0.0
  9
$USERR3
 40
0.0
  9
$USERR4
 40
0.0
  9
$USERR5
 40
0.0
  9
$WORLDVIEW
 70
     1
  9
$SHADEDGE
 70
     3
  9
$SHADEDIF
 70
    70
  9
$TILEMODE
 70
     1
  9
$MAXACTVP
 70
    48
  9
$PINSBASE
 10
0.0
 20
0.0
 30
0.0
  9
$PLIMCHECK
 70
     0
  9
$PEXTMIN
 10
0.0
 20
0.0
 30
0.0
  9
$PEXTMAX
 10
0.0
 20
0.0
 30
0.0
  9
$PLIMMIN
 10
0.0
 20
0.0
  9
$PLIMMAX
 10
12.0
 20
9.0
  9
$UNITMODE
 70
     0
  9
$VISRETAIN
 70
     1
  9
$PLINEGEN
 70
     0
  9
$PSLTSCALE
 70
     1
  9
$TREEDEPTH
 70
  3020
  9
$CMLSTYLE
  2
Standard
  9
$CMLJUST
 70
     0
  9
$CMLSCALE
 40
20.0
  9
$PROXYGRAPHICS
 70
     1
  9
$MEASUREMENT
 70
     1
  9
$CELWEIGHT
370
    -1
  9
$ENDCAPS
280
     0
  9
$JOINSTYLE
280
     0
  9
$LWDISPLAY
290
     0
  9
$INSUNITS
 70
     4
  9
$HYPERLINKBASE
  1

  9
$STYLESHEET
  1

  9
$XEDIT
290
     1
  9
$CEPSNTYPE
380
     0
  9
$PSTYLEMODE
290
     1
  9
$FINGERPRINTGUID
  2
{F076C30E-3F10-754B-AD36-B589FE558AAC}
  9
$VERSIONGUID
  2
{109CC2D0-9470-CE4F-9B91-8B19750273EF}
  9
$EXTNAMES
290
     1
  9
$PSVPSCALE
 40
0.0
  9
$OLESTARTUP
290
     0
  0
ENDSEC
  0
SECTION
  2
CLASSES
  0
CLASS
  1
ACDBDICTIONARYWDFLT
  2
AcDbDictionaryWithDefault
  3
ObjectDBX Classes
 90
        0
280
     0
281
     0
  0
CLASS
  1
ACDBPLACEHOLDER
  2
AcDbPlaceHolder
  3
ObjectDBX Classes
 90
        0
280
     0
281
     0
  0
CLASS
  1
LAYOUT
  2
AcDbLayout
  3
ObjectDBX Classes
 90
        0
280
     0
281
     0
  0
CLASS
  1
DICTIONARYVAR
  2
AcDbDictionaryVar
  3
ObjectDBX Classes
 90
        0
280
     0
281
     0
  0
CLASS
  1
TABLESTYLE
  2
AcDbTableStyle
  3
ObjectDBX Classes
 90
     4095
280
     0
281
     0
  0
CLASS
  1
MATERIAL
  2
AcDbMaterial
  3
ObjectDBX Classes
 90
     1153
280
     0
281
     0
  0
CLASS
  1
VISUALSTYLE
  2
AcDbVisualStyle
  3
ObjectDBX Classes
 90
     4095
280
     0
281
     0
  0
CLASS
  1
SCALE
  2
AcDbScale
  3
ObjectDBX Classes
 90
     1153
280
     0
281
     0
  0
CLASS
  1
MLEADERSTYLE
  2
AcDbMLeaderStyle
  3
ACDB_MLEADERSTYLE_CLASS
 90
     4095
280
     0
281
     0
  0
CLASS
  1
CELLSTYLEMAP
  2
AcDbCellStyleMap
  3
ObjectDBX Classes
 90
     1152
280
     0
281
     0
  0
CLASS
  1
EXACXREFPANELOBJECT
  2
ExAcXREFPanelObject
  3
EXAC_ESW
 90
    33793
280
     0
281
     0
  0
CLASS
  1
NPOCOLLECTION
  2
AcDbImpNonPersistentObjectsCollection
  3
ObjectDBX Classes
 90
    33921
280
     0
281
     0
  0
CLASS
  1
LAYER_INDEX
  2
AcDbLayerIndex
  3
ObjectDBX Classes
 90
    32768
280
     0
281
     0
  0
CLASS
  1
SPATIAL_INDEX
  2
AcDbSpatialIndex
  3
ObjectDBX Classes
 90
    32768
280
     0
281
     0
  0
CLASS
  1
IDBUFFER
  2
AcDbIdBuffer
  3
ObjectDBX Classes
 90
    32768
280
     0
281
     0
  0
CLASS
  1
ACDBSECTIONVIEWSTYLE
  2
AcDbSectionViewStyle
  3
ObjectDBX Classes
 90
     1025
280
     0
281
     0
  0
CLASS
  1
ACDBDETAILVIEWSTYLE
  2
AcDbDetailViewStyle
  3
ObjectDBX Classes
 90
     1025
280
     0
281
     0
  0
CLASS
  1
XRECORD
  2
AcDbXrecord
  3
ObjectDBX Classes
 90
        0
280
     0
281
     0
  0
ENDSEC
  0
SECTION
  2
TABLES
  0
TABLE
  2
VPORT
  5
8
102
{ACAD_XDICTIONARY
360
B94C
102
}
330
0
100
AcDbSymbolTable
 70
     1
  0
VPORT
  5
EA
330
8
100
AcDbSymbolTableRecord
100
AcDbViewportTableRecord
  2
*Active
 70
     0
 10
0.0
 20
0.0
 11
1.0
 21
1.0
 12
-0.9901420900017399
 22
-136.8259273750311
 13
0.0
 23
0.0
 14
10.0
 24
10.0
 15
10.0
 25
10.0
 16
0.0
 26
0.0
 36
1.0
 17
0.0
 27
0.0
 37
0.0
 40
841.8218378619727
 41
0.9846153846153846
 42
50.0
 43
0.0
 44
0.0
 50
0.0
 51
0.0
 71
     0
 72
  1000
 73
     1
 74
     3
 75
     0
 76
     1
 77
     0
 78
     0
281
     0
 65
     1
110
0.0
120
0.0
130
0.0
111
1.0
121
0.0
131
0.0
112
0.0
122
1.0
132
0.0
 79
     0
146
0.0
1001
ACAD_NAV_VCDISPLAY
1070
     3
  0
ENDTAB
  0
TABLE
  2
LTYPE
  5
5
330
0
100
AcDbSymbolTable
 70
     1
  0
LTYPE
  5
14
330
5
100
AcDbSymbolTableRecord
100
AcDbLinetypeTableRecord
  2
ByBlock
 70
     0
  3

 72
    65
 73
     0
 40
0.0
  0
LTYPE
  5
15
330
5
100
AcDbSymbolTableRecord
100
AcDbLinetypeTableRecord
  2
ByLayer
 70
     0
  3

 72
    65
 73
     0
 40
0.0
  0
LTYPE
  5
16
330
5
100
AcDbSymbolTableRecord
100
AcDbLinetypeTableRecord
  2
Continuous
 70
     0
  3
Solid line
 72
    65
 73
     0
 40
0.0
  0
ENDTAB
  0
TABLE
  2
LAYER
  5
2
102
{ACAD_XDICTIONARY
360
1FF
102
}
330
0
100
AcDbSymbolTable
 70
     1
  0
LAYER
  5
10
102
{ACAD_XDICTIONARY
360
13C
102
}
330
2
100
AcDbSymbolTableRecord
100
AcDbLayerTableRecord
  2
0
 70
     0
 62
     7
  6
Continuous
370
    -3
390
F
  0
ENDTAB
  0
TABLE
  2
STYLE
  5
3
330
0
100
AcDbSymbolTable
 70
     1
  0
STYLE
  5
11
330
3
100
AcDbSymbolTableRecord
100
AcDbTextStyleTableRecord
  2
Standard
 70
     0
 40
0.0
 41
1.0
 50
0.0
 71
     0
 42
2.5
  3
arial.ttf
  4

1001
ACAD
1000
Arial
1071
       34
  0
ENDTAB
  0
TABLE
  2
VIEW
  5
6
330
0
100
AcDbSymbolTable
 70
     0
  0
ENDTAB
  0
TABLE
  2
UCS
  5
7
330
0
100
AcDbSymbolTable
 70
     0
  0
ENDTAB
  0
TABLE
  2
APPID
  5
9
330
0
100
AcDbSymbolTable
 70
     8
  0
APPID
  5
12
330
9
100
AcDbSymbolTableRecord
100
AcDbRegAppTableRecord
  2
ACAD
 70
     0
  0
APPID
  5
9E
330
9
100
AcDbSymbolTableRecord
100
AcDbRegAppTableRecord
  2
ACAD_PSEXT
 70
     0
  0
APPID
  5
133
330
9
100
AcDbSymbolTableRecord
100
AcDbRegAppTableRecord
  2
AcadAnnoPO
 70
     0
  0
APPID
  5
134
330
9
100
AcDbSymbolTableRecord
100
AcDbRegAppTableRecord
  2
AcadAnnotative
 70
     0
  0
APPID
  5
135
330
9
100
AcDbSymbolTableRecord
100
AcDbRegAppTableRecord
  2
ACAD_DSTYLE_DIMJAG
 70
     0
  0
APPID
  5
136
330
9
100
AcDbSymbolTableRecord
100
AcDbRegAppTableRecord
  2
ACAD_DSTYLE_DIMTALN
 70
     0
  0
APPID
  5
165
330
9
100
AcDbSymbolTableRecord
100
AcDbRegAppTableRecord
  2
ACAD_MLEADERVER
 70
     0
  0
APPID
  5
217
330
9
100
AcDbSymbolTableRecord
100
AcDbRegAppTableRecord
  2
ACAD_NAV_VCDISPLAY
 70
     0
  0
ENDTAB
  0
TABLE
  2
DIMSTYLE
  5
A
330
0
100
AcDbSymbolTable
 70
     1
100
AcDbDimStyleTable
 71
     0
  0
DIMSTYLE
105
27
330
A
100
AcDbSymbolTableRecord
100
AcDbDimStyleTableRecord
  2
ISO-25
 70
     0
 41
2.5
 42
0.625
 43
3.75
 44
1.25
 73
     0
 74
     0
 77
     1
 78
     8
140
2.5
141
2.5
143
0.03937007874016
147
0.625
171
     3
172
     1
271
     2
272
     2
274
     3
278
    44
283
     0
284
     8
340
11
  0
ENDTAB
  0
TABLE
  2
BLOCK_RECORD
  5
1
330
0
100
AcDbSymbolTable
 70
     7
  0
BLOCK_RECORD
  5
1F
102
{ACAD_XDICTIONARY
360
1CE
102
}
330
1
100
AcDbSymbolTableRecord
100
AcDbBlockTableRecord
  2
*Model_Space
340
22
  0
BLOCK_RECORD
  5
D2
102
{ACAD_XDICTIONARY
360
B8FF
102
}
330
1
100
AcDbSymbolTableRecord
100
AcDbBlockTableRecord
  2
*Paper_Space
340
D3
  0
BLOCK_RECORD
  5
D6
102
{ACAD_XDICTIONARY
360
B901
102
}
330
1
100
AcDbSymbolTableRecord
100
AcDbBlockTableRecord
  2
*Paper_Space0
340
D7
  0
BLOCK_RECORD
  5
B716
330
1
100
AcDbSymbolTableRecord
100
AcDbBlockTableRecord
  2
PBWS100-Front
340
0
102
{BLKREFS
331
B8F5
102
}
  0
BLOCK_RECORD
  5
B755
330
1
100
AcDbSymbolTableRecord
100
AcDbBlockTableRecord
  2
PBWS100-Left
340
0
102
{BLKREFS
331
B8F6
102
}
  0
BLOCK_RECORD
  5
B78F
330
1
100
AcDbSymbolTableRecord
100
AcDbBlockTableRecord
  2
PBWS100-Right
340
0
102
{BLKREFS
331
B8F7
102
}
  0
BLOCK_RECORD
  5
B7C9
330
1
100
AcDbSymbolTableRecord
100
AcDbBlockTableRecord
  2
PBWS100-Top
340
0
102
{BLKREFS
331
B8F8
102
}
  0
BLOCK_RECORD
  5
B80A
330
1
100
AcDbSymbolTableRecord
100
AcDbBlockTableRecord
  2
PBWS100-Bottom
340
0
102
{BLKREFS
331
B8F9
102
}
  0
BLOCK_RECORD
  5
B835
330
1
100
AcDbSymbolTableRecord
100
AcDbBlockTableRecord
  2
PBWS100-ISO
340
0
102
{BLKREFS
331
B8FA
102
}
  0
ENDTAB
  0
ENDSEC
  0
SECTION
  2
BLOCKS
  0
BLOCK
  5
20
330
1F
100
AcDbEntity
  8
0
100
AcDbBlockBegin
  2
*Model_Space
 70
     0
 10
0.0
 20
0.0
 30
0.0
  3
*Model_Space
  1

  0
ENDBLK
  5
21
330
1F
100
AcDbEntity
  8
0
100
AcDbBlockEnd
  0
BLOCK
  5
D4
330
D2
100
AcDbEntity
 67
     1
  8
0
100
AcDbBlockBegin
  2
*Paper_Space
 70
     0
 10
0.0
 20
0.0
 30
0.0
  3
*Paper_Space
  1

  0
ENDBLK
  5
D5
330
D2
100
AcDbEntity
 67
     1
  8
0
100
AcDbBlockEnd
  0
BLOCK
  5
D8
330
D6
100
AcDbEntity
 67
     1
  8
0
100
AcDbBlockBegin
  2
*Paper_Space0
 70
     0
 10
0.0
 20
0.0
 30
0.0
  3
*Paper_Space0
  1

  0
ENDBLK
  5
D9
330
D6
100
AcDbEntity
 67
     1
  8
0
100
AcDbBlockEnd
  0
BLOCK
  5
B717
330
B716
100
AcDbEntity
  8
0
100
AcDbBlockBegin
  2
PBWS100-Front
 70
     0
 10
0.0
 20
0.0
 30
0.0
  3
PBWS100-Front
  1

  0
LINE
  5
B719
330
B716
100
AcDbEntity
  8
0
100
AcDbLine
 10
18.30651650629899
 20
0.0
 30
0.0
 11
18.30699894281669
 21
0.0
 31
0.0
  0
LINE
  5
B71A
330
B716
100
AcDbEntity
  8
0
100
AcDbLine
 10
3.276516506298614
 20
-2.999999999999957
 30
0.0
 11
3.276516506298585
 21
-5.999999999999944
 31
0.0
  0
LINE
  5
B71B
330
B716
100
AcDbEntity
  8
0
100
AcDbLine
 10
18.30699894281682
 20
-6.000000000000015
 30
0.0
 11
18.30699894281668
 21
0.0
 31
0.0
  0
LINE
  5
B71C
330
B716
100
AcDbEntity
  8
0
100
AcDbLine
 10
-8.723483493701348
 20
-197.937
 30
0.0
 11
-8.723483493701403
 21
-49.99999999999996
 31
0.0
  0
LINE
  5
B71D
330
B716
100
AcDbEntity
  8
0
100
AcDbLine
 10
3.276516506298685
 20
-197.937
 30
0.0
 11
-8.723483493701348
 21
-197.937
 31
0.0
  0
LINE
  5
B71E
330
B716
100
AcDbEntity
  8
0
100
AcDbLine
 10
-3.541502978361907
 20
-61.43933982822012
 30
0.0
 11
1.408244489943916
 21
-66.38908729652597
 31
0.0
  0
ARC
  5
B71F
330
B716
100
AcDbEntity
  8
0
100
AcDbCircle
 10
0.3475843181641138
 20
-67.44974746830577
 30
0.0
 40
1.499999999999995
100
AcDbArc
 50
225.0000000000005
 51
45.00000000000008
  0
LINE
  5
B720
330
B716
100
AcDbEntity
  8
0
100
AcDbLine
 10
-0.7130758536156923
 20
-68.5104076400856
 30
0.0
 11
-5.662823321921553
 21
-63.56066017177976
 31
0.0
  0
ARC
  5
B721
330
B716
100
AcDbEntity
  8
0
100
AcDbCircle
 10
-4.602163150141725
 20
-62.49999999999993
 30
0.0
 40
1.499999999999986
100
AcDbArc
 50
44.99999999999985
 51
224.9999999999999
  0
LINE
  5
B722
330
B716
100
AcDbEntity
  8
0
100
AcDbLine
 10
-3.541502978361909
 20
-81.43933982822012
 30
0.0
 11
1.40824448994393
 21
-86.38908729652598
 31
0.0
  0
ARC
  5
B723
330
B716
100
AcDbEntity
  8
0
100
AcDbCircle
 10
0.3475843181641383
 20
-87.44974746830578
 30
0.0
 40
1.499999999999995
100
AcDbArc
 50
224.9999999999989
 51
45.00000000000103
  0
LINE
  5
B724
330
B716
100
AcDbEntity
  8
0
100
AcDbLine
 10
-0.7130758536156979
 20
-88.51040764008557
 30
0.0
 11
-5.662823321921541
 21
-83.56066017177978
 31
0.0
  0
ARC
  5
B725
330
B716
100
AcDbEntity
  8
0
100
AcDbCircle
 10
-4.602163150141732
 20
-82.49999999999998
 30
0.0
 40
1.499999999999986
100
AcDbArc
 50
45.00000000000024
 51
225.0000000000003
  0
LINE
  5
B726
330
B716
100
AcDbEntity
  8
0
100
AcDbLine
 10
-3.541502978361898
 20
-101.4393398282201
 30
0.0
 11
1.408244489943944
 21
-106.3890872965259
 31
0.0
  0
ARC
  5
B727
330
B716
100
AcDbEntity
  8
0
100
AcDbCircle
 10
0.3475843181641438
 20
-107.4497474683058
 30
0.0
 40
1.499999999999995
100
AcDbArc
 50
224.9999999999991
 51
45.00000000000103
  0
LINE
  5
B728
330
B716
100
AcDbEntity
  8
0
100
AcDbLine
 10
-0.7130758536156935
 20
-108.5104076400856
 30
0.0
 11
-5.66282332192152
 21
-103.5606601717798
 31
0.0
  0
ARC
  5
B729
330
B716
100
AcDbEntity
  8
0
100
AcDbCircle
 10
-4.602163150141723
 20
-102.5
 30
0.0
 40
1.499999999999986
100
AcDbArc
 50
45.0000000000005
 51
225.0000000000003
  0
LINE
  5
B72A
330
B716
100
AcDbEntity
  8
0
100
AcDbLine
 10
-3.541502978361885
 20
-121.4393398282201
 30
0.0
 11
1.408244489943941
 21
-126.389087296526
 31
0.0
  0
ARC
  5
B72B
330
B716
100
AcDbEntity
  8
0
100
AcDbCircle
 10
0.3475843181641549
 20
-127.4497474683058
 30
0.0
 40
1.499999999999995
100
AcDbArc
 50
225.0
 51
45.00000000000103
  0
LINE
  5
B72C
330
B716
100
AcDbEntity
  8
0
100
AcDbLine
 10
-0.7130758536156474
 20
-128.5104076400856
 30
0.0
 11
-5.662823321921521
 21
-123.5606601717798
 31
0.0
  0
ARC
  5
B72D
330
B716
100
AcDbEntity
  8
0
100
AcDbCircle
 10
-4.60216315014171
 20
-122.5
 30
0.0
 40
1.499999999999986
100
AcDbArc
 50
45.00000000000036
 51
224.9999999999995
  0
LINE
  5
B72E
330
B716
100
AcDbEntity
  8
0
100
AcDbLine
 10
-3.541502978361883
 20
-141.4393398282201
 30
0.0
 11
1.408244489943948
 21
-146.3890872965259
 31
0.0
  0
ARC
  5
B72F
330
B716
100
AcDbEntity
  8
0
100
AcDbCircle
 10
0.3475843181641594
 20
-147.4497474683057
 30
0.0
 40
1.499999999999995
100
AcDbArc
 50
224.9999999999999
 51
45.00000000000015
  0
LINE
  5
B730
330
B716
100
AcDbEntity
  8
0
100
AcDbLine
 10
-0.7130758536156812
 20
-148.5104076400856
 30
0.0
 11
-5.662823321921517
 21
-143.5606601717798
 31
0.0
  0
ARC
  5
B731
330
B716
100
AcDbEntity
  8
0
100
AcDbCircle
 10
-4.602163150141703
 20
-142.5
 30
0.0
 40
1.499999999999986
100
AcDbArc
 50
45.00000000000131
 51
224.9999999999985
  0
LINE
  5
B732
330
B716
100
AcDbEntity
  8
0
100
AcDbLine
 10
-3.541502978361871
 20
-161.4393398282201
 30
0.0
 11
1.408244489943967
 21
-166.3890872965259
 31
0.0
  0
ARC
  5
B733
330
B716
100
AcDbEntity
  8
0
100
AcDbCircle
 10
0.3475843181641771
 20
-167.4497474683058
 30
0.0
 40
1.499999999999995
100
AcDbArc
 50
225.0000000000003
 51
45.00000000000287
  0
LINE
  5
B734
330
B716
100
AcDbEntity
  8
0
100
AcDbLine
 10
-0.7130758536156529
 20
-168.5104076400856
 30
0.0
 11
-5.662823321921491
 21
-163.5606601717798
 31
0.0
  0
ARC
  5
B735
330
B716
100
AcDbEntity
  8
0
100
AcDbCircle
 10
-4.60216315014169
 20
-162.5
 30
0.0
 40
1.499999999999986
100
AcDbArc
 50
45.00000000000158
 51
224.9999999999994
  0
LINE
  5
B736
330
B716
100
AcDbEntity
  8
0
100
AcDbLine
 10
-3.541502978361848
 20
-181.4393398282202
 30
0.0
 11
1.408244489943969
 21
-186.3890872965259
 31
0.0
  0
ARC
  5
B737
330
B716
100
AcDbEntity
  8
0
100
AcDbCircle
 10
0.3475843181641782
 20
-187.4497474683057
 30
0.0
 40
1.499999999999995
100
AcDbArc
 50
225.0000000000011
 51
45.00000000000095
  0
LINE
  5
B738
330
B716
100
AcDbEntity
  8
0
100
AcDbLine
 10
-0.7130758536156745
 20
-188.5104076400856
 30
0.0
 11
-5.662823321921489
 21
-183.5606601717798
 31
0.0
  0
ARC
  5
B739
330
B716
100
AcDbEntity
  8
0
100
AcDbCircle
 10
-4.602163150141685
 20
-182.5
 30
0.0
 40
1.499999999999986
100
AcDbArc
 50
44.99999999999913
 51
224.9999999999995
  0
LINE
  5
B73A
330
B716
100
AcDbEntity
  8
0
100
AcDbLine
 10
-20.28148349370143
 20
-5.999999999999952
 30
0.0
 11
-8.723483493701404
 21
-49.99999999999996
 31
0.0
  0
LINE
  5
B73B
330
B716
100
AcDbEntity
  8
0
100
AcDbLine
 10
-20.28148349370145
 20
-5.999999999999952
 30
0.0
 11
-20.28148349370141
 21
-2.999999999999969
 31
0.0
  0
LINE
  5
B73C
330
B716
100
AcDbEntity
  8
0
100
AcDbLine
 10
9.276516506298696
 20
-40.37802623350046
 30
0.0
 11
18.30699894281683
 21
-6.000000000000009
 31
0.0
  0
ARC
  5
B73D
330
B716
100
AcDbEntity
  8
0
100
AcDbCircle
 10
0.5569989428157909
 20
51.50000000000004
 30
0.0
 40
2.499999999999999
100
AcDbArc
 50
128.1481142121733
 51
231.8518857878241
  0
CIRCLE
  5
B73E
330
B716
100
AcDbEntity
  8
0
100
AcDbCircle
 10
-2.531483493701014
 20
51.50000000000012
 30
0.0
 40
2.5
  0
CIRCLE
  5
B73F
330
B716
100
AcDbEntity
  8
0
100
AcDbCircle
 10
-12.28148349370101
 20
39.00000000000012
 30
0.0
 40
2.5
  0
CIRCLE
  5
B740
330
B716
100
AcDbEntity
  8
0
100
AcDbCircle
 10
9.306516506299089
 20
63.00000000000013
 30
0.0
 40
4.250000000000001
  0
LINE
  5
B741
330
B716
100
AcDbEntity
  8
0
100
AcDbLine
 10
18.30651650629896
 20
-2.999999999999982
 30
0.0
 11
-20.28148349370106
 21
-2.999999999999968
 31
0.0
  0
LINE
  5
B742
330
B716
100
AcDbEntity
  8
0
100
AcDbLine
 10
18.3069989428158
 20
2.999999999999916
 30
0.0
 11
18.30699894281588
 21
0.0
 31
0.0
  0
LINE
  5
B743
330
B716
100
AcDbEntity
  8
0
100
AcDbLine
 10
-20.28148349370098
 20
2.999999999999989
 30
0.0
 11
-20.28148349370103
 21
-3.000000000000008
 31
0.0
  0
LINE
  5
B744
330
B716
100
AcDbEntity
  8
0
100
AcDbLine
 10
18.30651650629896
 20
-2.999999999999983
 30
0.0
 11
18.30651650629901
 21
3.000000000000046
 31
0.0
  0
LINE
  5
B745
330
B716
100
AcDbEntity
  8
0
100
AcDbLine
 10
13.30699894281577
 20
72.00000000000004
 30
0.0
 11
18.3069989428157
 21
67.00000000000006
 31
0.0
  0
LINE
  5
B746
330
B716
100
AcDbEntity
  8
0
100
AcDbLine
 10
13.30651650629898
 20
72.00000000000016
 30
0.0
 11
18.30651650629897
 21
67.00000000000016
 31
0.0
  0
LINE
  5
B747
330
B716
100
AcDbEntity
  8
0
100
AcDbLine
 10
-20.28148349370105
 20
67.00000000000016
 30
0.0
 11
-15.28148349370104
 21
72.00000000000017
 31
0.0
  0
LINE
  5
B748
330
B716
100
AcDbEntity
  8
0
100
AcDbLine
 10
18.3069989428157
 20
67.00000000000006
 30
0.0
 11
18.3069989428158
 21
2.999999999999918
 31
0.0
  0
LINE
  5
B749
330
B716
100
AcDbEntity
  8
0
100
AcDbLine
 10
13.30699894281577
 20
72.00000000000004
 30
0.0
 11
13.30651650629894
 21
72.00000000000004
 31
0.0
  0
LINE
  5
B74A
330
B716
100
AcDbEntity
  8
0
100
AcDbLine
 10
-15.28148349370104
 20
72.00000000000017
 30
0.0
 11
13.30651650629898
 21
72.00000000000016
 31
0.0
  0
LINE
  5
B74B
330
B716
100
AcDbEntity
  8
0
100
AcDbLine
 10
-20.28148349370097
 20
2.999999999999993
 30
0.0
 11
-20.28148349370105
 21
67.00000000000016
 31
0.0
  0
LINE
  5
B74C
330
B716
100
AcDbEntity
  8
0
100
AcDbLine
 10
18.30651650629897
 20
67.00000000000016
 30
0.0
 11
18.30651650629899
 21
3.000000000000051
 31
0.0
  0
SPLINE
  5
B74D
330
B716
100
AcDbEntity
  8
0
100
AcDbSpline
210
0.0
220
0.0
230
1.0
 70
     8
 71
     3
 72
     8
 73
     4
 74
     0
 42
0.000000001
 43
0.0000000001
 40
-0.7853981633974483
 40
-0.7853981633974483
 40
-0.7853981633974483
 40
-0.7853981633974483
 40
0.4300566693912807
 40
0.4300566693912807
 40
0.4300566693912807
 40
0.4300566693912807
 10
5.321844428310527
 20
-5.999999999999764
 30
0.0
 10
5.321844428310527
 20
-6.607727416394128
 30
0.0
 10
5.102816812627017
 20
-7.194170623525286
 30
0.0
 10
4.729484267181309
 20
-7.406279775322186
 30
0.0
  0
SPLINE
  5
B74E
330
B716
100
AcDbEntity
  8
0
100
AcDbSpline
210
0.0
220
0.0
230
1.0
 70
     8
 71
     3
 72
    14
 73
    10
 74
     0
 42
0.000000001
 43
0.0000000001
 40
-0.7853981633973789
 40
-0.7853981633973789
 40
-0.7853981633973789
 40
-0.7853981633973789
 40
0.3160919271552691
 40
0.3160919271552691
 40
0.3160919271552691
 40
1.299764733775541
 40
1.299764733775541
 40
1.299764733775541
 40
2.356194490192187
 40
2.356194490192187
 40
2.356194490192187
 40
2.356194490192187
 10
3.276516506298147
 20
-5.999999999999835
 30
0.0
 10
3.276516506298203
 20
-6.55074504527616
 30
0.0
 10
3.779084263782378
 20
-7.088739243414011
 30
0.0
 10
4.5005686701464
 20
-7.337823404552422
 30
0.0
 10
5.144881857371518
 20
-7.560265093291307
 30
0.0
 10
5.917324802815212
 20
-7.547882186586259
 30
0.0
 10
6.461771453089639
 20
-7.305906800767657
 30
0.0
 10
7.046487873285755
 20
-7.046033806232543
 30
0.0
 10
7.367172350322253
 20
-6.528214878208301
 30
0.0
 10
7.367172350322345
 20
-5.999999999999977
 30
0.0
  0
LINE
  5
B74F
330
B716
100
AcDbEntity
  8
0
100
AcDbLine
 10
7.367172350322689
 20
-5.999999999999764
 30
0.0
 11
7.367172350322688
 21
-2.999999999999987
 31
0.0
  0
LINE
  5
B750
330
B716
100
AcDbEntity
  8
0
100
AcDbLine
 10
5.321844428310637
 20
-5.999999999999764
 30
0.0
 11
5.321844428310635
 21
-2.999999999999986
 31
0.0
  0
LINE
  5
B751
330
B716
100
AcDbEntity
  8
0
100
AcDbLine
 10
-8.723483493701365
 20
-197.937
 30
0.0
 11
-11.25100105718303
 21
-197.937
 31
0.0
  0
LINE
  5
B752
330
B716
100
AcDbEntity
  8
0
100
AcDbLine
 10
9.276516506298658
 20
-197.9370000000002
 30
0.0
 11
3.276516506298685
 21
-197.9370000000002
 31
0.0
  0
LINE
  5
B753
330
B716
100
AcDbEntity
  8
0
100
AcDbLine
 10
-11.25100105718301
 20
-197.937
 30
0.0
 11
-11.2510010571831
 21
-40.37802623350106
 31
0.0
  0
LINE
  5
B754
330
B716
100
AcDbEntity
  8
0
100
AcDbLine
 10
9.276516506298772
 20
-197.9370000000002
 30
0.0
 11
9.276516506298687
 21
-3.000000000000007
 31
0.0
  0
ENDBLK
  5
B718
330
B716
100
AcDbEntity
  8
0
100
AcDbBlockEnd
  0
BLOCK
  5
B756
330
B755
100
AcDbEntity
  8
0
100
AcDbBlockBegin
  2
PBWS100-Left
 70
     0
 10
0.0
 20
0.0
 30
0.0
  3
PBWS100-Left
  1

  0
ARC
  5
B758
330
B755
100
AcDbEntity
  8
0
100
AcDbCircle
 10
-9.536272079978756
 20
-6.000000000000008
 30
0.0
 40
3.000000000000006
100
AcDbArc
 50
0.0
 51
90.00000000000007
  0
ARC
  5
B759
330
B755
100
AcDbEntity
  8
0
100
AcDbCircle
 10
-9.536272079978756
 20
-6.000000000000008
 30
0.0
 40
6.000000000000004
100
AcDbArc
 50
39.78608288672467
 51
90.00000000000003
  0
LINE
  5
B75A
330
B755
100
AcDbEntity
  8
0
100
AcDbLine
 10
-6.536272079978759
 20
-6.000000000000026
 30
0.0
 11
-6.536272079978793
 21
-197.937
 31
0.0
  0
LINE
  5
B75B
330
B755
100
AcDbEntity
  8
0
100
AcDbLine
 10
-17.25427207997842
 20
0.0
 30
0.0
 11
-46.01299894247847
 21
0.0
 31
0.0
  0
LINE
  5
B75C
330
B755
100
AcDbEntity
  8
0
100
AcDbLine
 10
-46.01299894247846
 20
-3.000000000000035
 30
0.0
 11
-17.25427207997842
 21
-3.00000000000003
 31
0.0
  0
LINE
  5
B75D
330
B755
100
AcDbEntity
  8
0
100
AcDbLine
 10
-12.25427207997854
 20
0.0
 30
0.0
 11
-17.25427207997842
 21
0.0
 31
0.0
  0
LINE
  5
B75E
330
B755
100
AcDbEntity
  8
0
100
AcDbLine
 10
-17.25427207997842
 20
0.0
 30
0.0
 11
-17.25427207997842
 21
-3.00000000000003
 31
0.0
  0
LINE
  5
B75F
330
B755
100
AcDbEntity
  8
0
100
AcDbLine
 10
-17.25427207997842
 20
-3.00000000000003
 30
0.0
 11
-12.25427207997854
 21
-3.000000000000026
 31
0.0
  0
LINE
  5
B760
330
B755
100
AcDbEntity
  8
0
100
AcDbLine
 10
-12.25427207997854
 20
-3.000000000000026
 30
0.0
 11
-12.25427207997854
 21
0.0
 31
0.0
  0
LINE
  5
B761
330
B755
100
AcDbEntity
  8
0
100
AcDbLine
 10
-10.75427207997876
 20
0.0
 30
0.0
 11
-12.25427207997873
 21
0.0
 31
0.0
  0
LINE
  5
B762
330
B755
100
AcDbEntity
  8
0
100
AcDbLine
 10
-12.25427207997872
 20
-3.000000000000011
 30
0.0
 11
-10.75427207997876
 21
-3.000000000000009
 31
0.0
  0
LINE
  5
B763
330
B755
100
AcDbEntity
  8
0
100
AcDbLine
 10
-9.536272079978756
 20
0.0
 30
0.0
 11
-10.75427207997876
 21
0.0
 31
0.0
  0
LINE
  5
B764
330
B755
100
AcDbEntity
  8
0
100
AcDbLine
 10
-10.75427207997876
 20
-3.000000000000007
 30
0.0
 11
-9.536272079978761
 21
-3.00000000000001
 31
0.0
  0
LINE
  5
B765
330
B755
100
AcDbEntity
  8
0
100
AcDbLine
 10
47.98700105732398
 20
0.0
 30
0.0
 11
11.5102741948239
 21
0.0
 31
0.0
  0
ARC
  5
B766
330
B755
100
AcDbEntity
  8
0
100
AcDbCircle
 10
11.5102741948239
 20
-5.99999999999996
 30
0.0
 40
5.999999999999994
100
AcDbArc
 50
90.00000000000005
 51
180.0
  0
ARC
  5
B767
330
B755
100
AcDbEntity
  8
0
100
AcDbCircle
 10
11.5102741948239
 20
-5.99999999999996
 30
0.0
 40
2.999999999999991
100
AcDbArc
 50
90.00000000000019
 51
180.0
  0
LINE
  5
B768
330
B755
100
AcDbEntity
  8
0
100
AcDbLine
 10
11.51027419482389
 20
-2.99999999999998
 30
0.0
 11
47.98700105732398
 21
-2.999999999999968
 31
0.0
  0
LINE
  5
B769
330
B755
100
AcDbEntity
  8
0
100
AcDbLine
 10
8.510274194823752
 20
-197.937
 30
0.0
 11
8.510274194823363
 21
-49.99999999999996
 31
0.0
  0
LINE
  5
B76A
330
B755
100
AcDbEntity
  8
0
100
AcDbLine
 10
5.510274194823356
 20
-49.99999999999993
 30
0.0
 11
5.510274194823746
 21
-197.937
 31
0.0
  0
LINE
  5
B76B
330
B755
100
AcDbEntity
  8
0
100
AcDbLine
 10
5.510274194823746
 20
-197.937
 30
0.0
 11
8.510274194823752
 21
-197.937
 31
0.0
  0
LINE
  5
B76C
330
B755
100
AcDbEntity
  8
0
100
AcDbLine
 10
8.510274194823882
 20
-5.999999999999952
 30
0.0
 11
8.510274194823363
 21
-49.99999999999996
 31
0.0
  0
LINE
  5
B76D
330
B755
100
AcDbEntity
  8
0
100
AcDbLine
 10
5.510274194823356
 20
-49.99999999999993
 30
0.0
 11
5.510274194823862
 21
-5.999999999999943
 31
0.0
  0
LINE
  5
B76E
330
B755
100
AcDbEntity
  8
0
100
AcDbLine
 10
5.510274194823862
 20
-5.999999999999943
 30
0.0
 11
8.510274194823882
 21
-5.999999999999952
 31
0.0
  0
LINE
  5
B76F
330
B755
100
AcDbEntity
  8
0
100
AcDbLine
 10
8.510274194823363
 20
-49.99999999999996
 30
0.0
 11
5.510274194823356
 21
-49.99999999999993
 31
0.0
  0
LINE
  5
B770
330
B755
100
AcDbEntity
  8
0
100
AcDbLine
 10
5.463727920021259
 20
0.0
 30
0.0
 11
6.899640295498265
 21
0.0
 31
0.0
  0
LINE
  5
B771
330
B755
100
AcDbEntity
  8
0
100
AcDbLine
 10
-4.925638180653375
 20
-6.000000000000027
 30
0.0
 11
-4.925638180653376
 21
0.0
 31
0.0
  0
LINE
  5
B772
330
B755
100
AcDbEntity
  8
0
100
AcDbLine
 10
6.899640295498265
 20
-2.160461610246675
 30
0.0
 11
6.899640295498265
 21
0.0
 31
0.0
  0
LINE
  5
B773
330
B755
100
AcDbEntity
  8
0
100
AcDbLine
 10
5.463727920021267
 20
0.0
 30
0.0
 11
-4.925638180653376
 21
0.0
 31
0.0
  0
LINE
  5
B774
330
B755
100
AcDbEntity
  8
0
100
AcDbLine
 10
-49.01299894247821
 20
66.99999999999997
 30
0.0
 11
-49.01299894247841
 21
72.00000000000002
 31
0.0
  0
LINE
  5
B775
330
B755
100
AcDbEntity
  8
0
100
AcDbLine
 10
53.98700105732384
 20
72.00000000000017
 30
0.0
 11
50.98700105732383
 21
72.00000000000016
 31
0.0
  0
LINE
  5
B776
330
B755
100
AcDbEntity
  8
0
100
AcDbLine
 10
50.98700105732383
 20
72.00000000000016
 30
0.0
 11
50.98700105732385
 21
67.00000000000014
 31
0.0
  0
LINE
  5
B777
330
B755
100
AcDbEntity
  8
0
100
AcDbLine
 10
53.98700105732391
 20
67.00000000000016
 30
0.0
 11
53.98700105732384
 21
72.00000000000017
 31
0.0
  0
LINE
  5
B778
330
B755
100
AcDbEntity
  8
0
100
AcDbLine
 10
50.98700105732385
 20
67.00000000000014
 30
0.0
 11
53.98700105732391
 21
67.00000000000016
 31
0.0
  0
LINE
  5
B779
330
B755
100
AcDbEntity
  8
0
100
AcDbLine
 10
-52.0129989424784
 20
72.00000000000004
 30
0.0
 11
-52.01299894247821
 21
67.00000000000004
 31
0.0
  0
LINE
  5
B77A
330
B755
100
AcDbEntity
  8
0
100
AcDbLine
 10
-52.01299894247821
 20
67.00000000000004
 30
0.0
 11
-49.01299894247821
 21
66.99999999999997
 31
0.0
  0
LINE
  5
B77B
330
B755
100
AcDbEntity
  8
0
100
AcDbLine
 10
-49.01299894247841
 20
72.00000000000002
 30
0.0
 11
-52.0129989424784
 21
72.00000000000004
 31
0.0
  0
LINE
  5
B77C
330
B755
100
AcDbEntity
  8
0
100
AcDbLine
 10
-49.01299894247821
 20
66.99999999999997
 30
0.0
 11
-49.01299894247848
 21
2.999999999999882
 31
0.0
  0
LINE
  5
B77D
330
B755
100
AcDbEntity
  8
0
100
AcDbLine
 10
50.98700105732385
 20
67.00000000000014
 30
0.0
 11
50.98700105732397
 21
2.99999999999998
 31
0.0
  0
LINE
  5
B77E
330
B755
100
AcDbEntity
  8
0
100
AcDbLine
 10
53.98700105732395
 20
2.999999999999993
 30
0.0
 11
53.98700105732391
 21
67.00000000000016
 31
0.0
  0
LINE
  5
B77F
330
B755
100
AcDbEntity
  8
0
100
AcDbLine
 10
-52.01299894247821
 20
67.00000000000004
 30
0.0
 11
-52.01299894247849
 21
2.999999999999882
 31
0.0
  0
ARC
  5
B780
330
B755
100
AcDbEntity
  8
0
100
AcDbCircle
 10
-46.01299894247853
 20
2.999999999999882
 30
0.0
 40
5.999999999999982
100
AcDbArc
 50
180.0
 51
270.0000000000007
  0
ARC
  5
B781
330
B755
100
AcDbEntity
  8
0
100
AcDbCircle
 10
-46.01299894247853
 20
2.999999999999882
 30
0.0
 40
2.999999999999973
100
AcDbArc
 50
180.0
 51
270.0000000000012
  0
ARC
  5
B782
330
B755
100
AcDbEntity
  8
0
100
AcDbCircle
 10
47.98700105732399
 20
2.999999999999973
 30
0.0
 40
5.999999999999983
100
AcDbArc
 50
269.9999999999998
 51
0.0
  0
ARC
  5
B783
330
B755
100
AcDbEntity
  8
0
100
AcDbCircle
 10
47.98700105732399
 20
2.999999999999973
 30
0.0
 40
2.999999999999977
100
AcDbArc
 50
269.9999999999998
 51
0.0
  0
SPLINE
  5
B784
330
B755
100
AcDbEntity
  8
0
100
AcDbSpline
210
0.0
220
0.0
230
1.0
 70
     8
 71
     3
 72
    11
 73
     7
 74
     0
 42
0.000000001
 43
0.0000000001
 40
1.343715047942824
 40
1.343715047942824
 40
1.343715047942824
 40
1.343715047942824
 40
1.56916514439576
 40
1.56916514439576
 40
1.56916514439576
 40
2.356194490192132
 40
2.356194490192132
 40
2.356194490192132
 40
2.356194490192132
 10
5.461260584833633
 20
-7.269812748612408
 30
0.0
 10
5.475114289613198
 20
-7.211311675663274
 30
0.0
 10
5.485452431583204
 20
-7.141967410822499
 30
0.0
 10
5.492045067768409
 20
-7.062388890137363
 30
0.0
 10
5.515059465302716
 20
-6.784586254167584
 30
0.0
 10
5.510274194823674
 20
-6.393514672898271
 30
0.0
 10
5.510274194823674
 20
-6.000000000000085
 30
0.0
  0
SPLINE
  5
B785
330
B755
100
AcDbEntity
  8
0
100
AcDbSpline
210
0.0
220
0.0
230
1.0
 70
     8
 71
     3
 72
    14
 73
    10
 74
     0
 42
0.000000001
 43
0.0000000001
 40
-0.7853981633974369
 40
-0.7853981633974369
 40
-0.7853981633974369
 40
-0.7853981633974369
 40
0.316091927155218
 40
0.316091927155218
 40
0.316091927155218
 40
1.299764733775492
 40
1.299764733775492
 40
1.299764733775492
 40
2.356194490192299
 40
2.356194490192299
 40
2.356194490192299
 40
2.356194490192299
 10
-6.536272079978788
 20
-5.999999999999988
 30
0.0
 10
-6.536272079978788
 20
-6.550745045276316
 30
0.0
 10
-6.560437653343957
 20
-7.08873924341421
 30
0.0
 10
-6.410086539099745
 20
-7.337823404552646
 30
0.0
 10
-6.275817239906242
 20
-7.560265093291553
 30
0.0
 10
-5.962032630250229
 20
-7.547882186586535
 30
0.0
 10
-5.620969801961937
 20
-7.305906800767953
 30
0.0
 10
-5.254680403509023
 20
-7.046033806232823
 30
0.0
 10
-4.925638180653363
 20
-6.528214878208467
 30
0.0
 10
-4.925638180653336
 20
-6.000000000000063
 30
0.0
  0
LINE
  5
B786
330
B755
100
AcDbEntity
  8
0
100
AcDbLine
 10
5.463727920021224
 20
-197.937
 30
0.0
 11
-6.536272079978797
 21
-197.937
 31
0.0
  0
LINE
  5
B787
330
B755
100
AcDbEntity
  8
0
100
AcDbLine
 10
5.463727920021219
 20
-197.9370000000002
 30
0.0
 11
5.510274194823649
 21
-197.9370000000002
 31
0.0
  0
ARC
  5
B788
330
B755
100
AcDbEntity
  8
0
100
AcDbCircle
 10
-12.24337886116553
 20
-3.999999999999989
 30
0.0
 40
1.0
100
AcDbArc
 50
45.00000000000013
 51
90.0
  0
ARC
  5
B789
330
B755
100
AcDbEntity
  8
0
100
AcDbCircle
 10
-7.536272079979029
 20
-8.707106781186492
 30
0.0
 40
1.0
100
AcDbArc
 50
0.0
 51
44.99999999999985
  0
ARC
  5
B78A
330
B755
100
AcDbEntity
  8
0
100
AcDbCircle
 10
14.21738097601006
 20
-3.999999999999963
 30
0.0
 40
1.0
100
AcDbArc
 50
90.00000000000076
 51
135.0
  0
ARC
  5
B78B
330
B755
100
AcDbEntity
  8
0
100
AcDbCircle
 10
9.510274194823402
 20
-8.707106781186626
 30
0.0
 40
1.0
100
AcDbArc
 50
134.9999999999999
 51
180.0
  0
LINE
  5
B78C
330
B755
100
AcDbEntity
  8
0
100
AcDbLine
 10
-6.829165298792478
 20
-7.999999999999944
 30
0.0
 11
-11.53627207997898
 21
-3.29289321881344
 31
0.0
  0
LINE
  5
B78D
330
B755
100
AcDbEntity
  8
0
100
AcDbLine
 10
8.803167413636852
 20
-8.000000000000079
 30
0.0
 11
13.51027419482351
 21
-3.292893218813414
 31
0.0
  0
LINE
  5
B78E
330
B755
100
AcDbEntity
  8
0
100
AcDbLine
 10
5.463727920021206
 20
-197.937
 30
0.0
 11
5.463727920021243
 21
0.0
 31
0.0
  0
ENDBLK
  5
B757
330
B755
100
AcDbEntity
  8
0
100
AcDbBlockEnd
  0
BLOCK
  5
B790
330
B78F
100
AcDbEntity
  8
0
100
AcDbBlockBegin
  2
PBWS100-Right
 70
     0
 10
0.0
 20
0.0
 30
0.0
  3
PBWS100-Right
  1

  0
LINE
  5
B792
330
B78F
100
AcDbEntity
  8
0
100
AcDbLine
 10
6.536272079979069
 20
-197.937
 30
0.0
 11
6.536272079978822
 21
-50.00000000000003
 31
0.0
  0
LINE
  5
B793
330
B78F
100
AcDbEntity
  8
0
100
AcDbLine
 10
3.536272079979079
 20
-50.00000000000004
 30
0.0
 11
3.536272079979061
 21
-197.937
 31
0.0
  0
LINE
  5
B794
330
B78F
100
AcDbEntity
  8
0
100
AcDbLine
 10
3.536272079979061
 20
-197.937
 30
0.0
 11
6.536272079979069
 21
-197.937
 31
0.0
  0
LINE
  5
B795
330
B78F
100
AcDbEntity
  8
0
100
AcDbLine
 10
6.536272079979279
 20
-6.000000000000012
 30
0.0
 11
6.536272079978822
 21
-50.00000000000004
 31
0.0
  0
LINE
  5
B796
330
B78F
100
AcDbEntity
  8
0
100
AcDbLine
 10
3.536272079979079
 20
-50.00000000000004
 30
0.0
 11
3.536272079979261
 21
-6.000000000000014
 31
0.0
  0
LINE
  5
B797
330
B78F
100
AcDbEntity
  8
0
100
AcDbLine
 10
3.536272079979261
 20
-6.000000000000013
 30
0.0
 11
6.536272079979279
 21
-6.000000000000012
 31
0.0
  0
LINE
  5
B798
330
B78F
100
AcDbEntity
  8
0
100
AcDbLine
 10
6.536272079978822
 20
-50.00000000000004
 30
0.0
 11
3.536272079979079
 21
-50.00000000000004
 31
0.0
  0
LINE
  5
B799
330
B78F
100
AcDbEntity
  8
0
100
AcDbLine
 10
46.01299894247931
 20
0.0
 30
0.0
 11
9.536272079979273
 21
0.0
 31
0.0
  0
ARC
  5
B79A
330
B78F
100
AcDbEntity
  8
0
100
AcDbCircle
 10
9.536272079979273
 20
-6.000000000000004
 30
0.0
 40
6.000000000000005
100
AcDbArc
 50
90.00000000000005
 51
180.0
  0
ARC
  5
B79B
330
B78F
100
AcDbEntity
  8
0
100
AcDbCircle
 10
9.536272079979273
 20
-6.000000000000004
 30
0.0
 40
3.000000000000007
100
AcDbArc
 50
89.99999999999976
 51
180.0
  0
LINE
  5
B79C
330
B78F
100
AcDbEntity
  8
0
100
AcDbLine
 10
9.536272079979283
 20
-2.999999999999987
 30
0.0
 11
46.01299894247931
 21
-2.999999999999997
 31
0.0
  0
ARC
  5
B79D
330
B78F
100
AcDbEntity
  8
0
100
AcDbCircle
 10
-11.51027419482365
 20
-5.999999999999951
 30
0.0
 40
6.000000000000012
100
AcDbArc
 50
39.78608288672466
 51
89.9999999999998
  0
ARC
  5
B79E
330
B78F
100
AcDbEntity
  8
0
100
AcDbCircle
 10
-11.51027419482364
 20
-5.99999999999996
 30
0.0
 40
3.000000000000003
100
AcDbArc
 50
0.0
 51
90.00000000000005
  0
LINE
  5
B79F
330
B78F
100
AcDbEntity
  8
0
100
AcDbLine
 10
-19.22827419482349
 20
0.0
 30
0.0
 11
-47.98700105732358
 21
0.0
 31
0.0
  0
LINE
  5
B7A0
330
B78F
100
AcDbEntity
  8
0
100
AcDbLine
 10
-47.98700105732358
 20
-2.999999999999981
 30
0.0
 11
-19.22827419482349
 21
-2.999999999999949
 31
0.0
  0
LINE
  5
B7A1
330
B78F
100
AcDbEntity
  8
0
100
AcDbLine
 10
-14.22827419482356
 20
0.0
 30
0.0
 11
-19.22827419482349
 21
0.0
 31
0.0
  0
LINE
  5
B7A2
330
B78F
100
AcDbEntity
  8
0
100
AcDbLine
 10
-19.22827419482349
 20
0.0
 30
0.0
 11
-19.22827419482349
 21
-2.999999999999949
 31
0.0
  0
LINE
  5
B7A3
330
B78F
100
AcDbEntity
  8
0
100
AcDbLine
 10
-19.22827419482349
 20
-2.999999999999949
 30
0.0
 11
-14.22827419482356
 21
-2.999999999999944
 31
0.0
  0
LINE
  5
B7A4
330
B78F
100
AcDbEntity
  8
0
100
AcDbLine
 10
-14.22827419482356
 20
-2.999999999999944
 30
0.0
 11
-14.22827419482356
 21
0.0
 31
0.0
  0
LINE
  5
B7A5
330
B78F
100
AcDbEntity
  8
0
100
AcDbLine
 10
-12.72827419482366
 20
0.0
 30
0.0
 11
-14.22827419482364
 21
0.0
 31
0.0
  0
LINE
  5
B7A6
330
B78F
100
AcDbEntity
  8
0
100
AcDbLine
 10
-14.22827419482364
 20
-2.999999999999941
 30
0.0
 11
-12.72827419482366
 21
-2.999999999999943
 31
0.0
  0
LINE
  5
B7A7
330
B78F
100
AcDbEntity
  8
0
100
AcDbLine
 10
-11.51027419482363
 20
0.0
 30
0.0
 11
-12.72827419482366
 21
0.0
 31
0.0
  0
LINE
  5
B7A8
330
B78F
100
AcDbEntity
  8
0
100
AcDbLine
 10
-12.72827419482366
 20
-2.999999999999964
 30
0.0
 11
-11.51027419482365
 21
-2.999999999999961
 31
0.0
  0
LINE
  5
B7A9
330
B78F
100
AcDbEntity
  8
0
100
AcDbLine
 10
-8.510274194823644
 20
-197.937
 30
0.0
 11
-8.510274194823633
 21
-5.999999999999943
 31
0.0
  0
LINE
  5
B7AA
330
B78F
100
AcDbEntity
  8
0
100
AcDbLine
 10
3.489725805176437
 20
0.0
 30
0.0
 11
-6.899640295498259
 21
0.0
 31
0.0
  0
LINE
  5
B7AB
330
B78F
100
AcDbEntity
  8
0
100
AcDbLine
 10
4.925638180653374
 20
-2.160461610247031
 30
0.0
 11
4.925638180653376
 21
0.0
 31
0.0
  0
LINE
  5
B7AC
330
B78F
100
AcDbEntity
  8
0
100
AcDbLine
 10
3.489725805176526
 20
0.0
 30
0.0
 11
4.925638180653376
 21
0.0
 31
0.0
  0
LINE
  5
B7AD
330
B78F
100
AcDbEntity
  8
0
100
AcDbLine
 10
-6.899640295498265
 20
-5.999999999999764
 30
0.0
 11
-6.899640295498265
 21
0.0
 31
0.0
  0
LINE
  5
B7AE
330
B78F
100
AcDbEntity
  8
0
100
AcDbLine
 10
52.01299894247918
 20
67.00000000000009
 30
0.0
 11
52.01299894247906
 21
72.00000000000006
 31
0.0
  0
LINE
  5
B7AF
330
B78F
100
AcDbEntity
  8
0
100
AcDbLine
 10
52.01299894247906
 20
72.00000000000006
 30
0.0
 11
49.01299894247906
 21
72.00000000000004
 31
0.0
  0
LINE
  5
B7B0
330
B78F
100
AcDbEntity
  8
0
100
AcDbLine
 10
49.01299894247906
 20
72.00000000000004
 30
0.0
 11
49.01299894247923
 21
67.00000000000006
 31
0.0
  0
LINE
  5
B7B1
330
B78F
100
AcDbEntity
  8
0
100
AcDbLine
 10
49.01299894247923
 20
67.00000000000006
 30
0.0
 11
52.01299894247918
 21
67.00000000000009
 31
0.0
  0
LINE
  5
B7B2
330
B78F
100
AcDbEntity
  8
0
100
AcDbLine
 10
-53.98700105732356
 20
72.00000000000016
 30
0.0
 11
-53.98700105732352
 21
67.00000000000016
 31
0.0
  0
LINE
  5
B7B3
330
B78F
100
AcDbEntity
  8
0
100
AcDbLine
 10
-53.98700105732352
 20
67.00000000000016
 30
0.0
 11
-50.98700105732351
 21
67.00000000000014
 31
0.0
  0
LINE
  5
B7B4
330
B78F
100
AcDbEntity
  8
0
100
AcDbLine
 10
-50.98700105732351
 20
67.00000000000014
 30
0.0
 11
-50.98700105732357
 21
72.00000000000013
 31
0.0
  0
LINE
  5
B7B5
330
B78F
100
AcDbEntity
  8
0
100
AcDbLine
 10
-50.98700105732357
 20
72.00000000000013
 30
0.0
 11
-53.98700105732356
 21
72.00000000000016
 31
0.0
  0
LINE
  5
B7B6
330
B78F
100
AcDbEntity
  8
0
100
AcDbLine
 10
49.01299894247923
 20
67.00000000000006
 30
0.0
 11
49.01299894247937
 21
2.999999999999918
 31
0.0
  0
LINE
  5
B7B7
330
B78F
100
AcDbEntity
  8
0
100
AcDbLine
 10
52.01299894247937
 20
2.999999999999933
 30
0.0
 11
52.01299894247918
 21
67.00000000000009
 31
0.0
  0
LINE
  5
B7B8
330
B78F
100
AcDbEntity
  8
0
100
AcDbLine
 10
-50.98700105732351
 20
67.00000000000014
 30
0.0
 11
-50.98700105732358
 21
3.000000000000033
 31
0.0
  0
LINE
  5
B7B9
330
B78F
100
AcDbEntity
  8
0
100
AcDbLine
 10
-53.98700105732352
 20
67.00000000000016
 30
0.0
 11
-53.98700105732356
 21
3.000000000000051
 31
0.0
  0
ARC
  5
B7BA
330
B78F
100
AcDbEntity
  8
0
100
AcDbCircle
 10
46.01299894247938
 20
2.999999999999913
 30
0.0
 40
5.999999999999991
100
AcDbArc
 50
269.9999999999993
 51
0.0
  0
ARC
  5
B7BB
330
B78F
100
AcDbEntity
  8
0
100
AcDbCircle
 10
46.01299894247938
 20
2.999999999999913
 30
0.0
 40
2.999999999999983
100
AcDbArc
 50
269.9999999999985
 51
0.0
  0
ARC
  5
B7BC
330
B78F
100
AcDbEntity
  8
0
100
AcDbCircle
 10
-47.98700105732359
 20
3.000000000000031
 30
0.0
 40
6.000000000000014
100
AcDbArc
 50
180.0
 51
270.0000000000001
  0
ARC
  5
B7BD
330
B78F
100
AcDbEntity
  8
0
100
AcDbCircle
 10
-47.98700105732359
 20
3.000000000000031
 30
0.0
 40
3.000000000000015
100
AcDbArc
 50
180.0
 51
270.0000000000002
  0
SPLINE
  5
B7BE
330
B78F
100
AcDbEntity
  8
0
100
AcDbSpline
210
0.0
220
0.0
230
1.0
 70
     8
 71
     3
 72
    14
 73
    10
 74
     0
 42
0.000000001
 43
0.0000000001
 40
-0.7853981633973789
 40
-0.7853981633973789
 40
-0.7853981633973789
 40
-0.7853981633973789
 40
0.3160919271552691
 40
0.3160919271552691
 40
0.3160919271552691
 40
1.299764733775541
 40
1.299764733775541
 40
1.299764733775541
 40
2.356194490192187
 40
2.356194490192187
 40
2.356194490192187
 40
2.356194490192187
 10
-8.510274194823615
 20
-5.999999999999835
 30
0.0
 10
-8.510274194823615
 20
-6.55074504527616
 30
0.0
 10
-8.534439768188823
 20
-7.088739243414011
 30
0.0
 10
-8.384088653944655
 20
-7.337823404552422
 30
0.0
 10
-8.249819354751188
 20
-7.560265093291307
 30
0.0
 10
-7.936034745095234
 20
-7.547882186586259
 30
0.0
 10
-7.594971916806989
 20
-7.305906800767657
 30
0.0
 10
-7.228682518354181
 20
-7.046033806232543
 30
0.0
 10
-6.899640295498601
 20
-6.528214878208301
 30
0.0
 10
-6.899640295498516
 20
-5.999999999999977
 30
0.0
  0
SPLINE
  5
B7BF
330
B78F
100
AcDbEntity
  8
0
100
AcDbSpline
210
0.0
220
0.0
230
1.0
 70
     8
 71
     3
 72
    11
 73
     7
 74
     0
 42
0.000000001
 43
0.0000000001
 40
-0.227081278850684
 40
-0.227081278850684
 40
-0.227081278850684
 40
-0.227081278850684
 40
-0.0016311823990702
 40
-0.0016311823990702
 40
-0.0016311823990702
 40
0.7853981633974369
 40
0.7853981633974369
 40
0.7853981633974369
 40
0.7853981633974369
 10
3.48725846998893
 20
-7.269812748611551
 30
0.0
 10
3.501112174768376
 20
-7.211311675662626
 30
0.0
 10
3.511450316738299
 20
-7.141967410822191
 30
0.0
 10
3.518042952923468
 20
-7.062388890137516
 30
0.0
 10
3.541057350457788
 20
-6.784586254167672
 30
0.0
 10
3.536272079978751
 20
-6.393514672898278
 30
0.0
 10
3.536272079978748
 20
-6.000000000000023
 30
0.0
  0
LINE
  5
B7C0
330
B78F
100
AcDbEntity
  8
0
100
AcDbLine
 10
3.489725805176501
 20
-197.937
 30
0.0
 11
3.536272079978797
 21
-197.937
 31
0.0
  0
LINE
  5
B7C1
330
B78F
100
AcDbEntity
  8
0
100
AcDbLine
 10
3.489725805176394
 20
-197.9370000000002
 30
0.0
 11
-8.510274194823647
 21
-197.9370000000002
 31
0.0
  0
ARC
  5
B7C2
330
B78F
100
AcDbEntity
  8
0
100
AcDbCircle
 10
12.24337886116553
 20
-3.999999999999989
 30
0.0
 40
1.0
100
AcDbArc
 50
90.0
 51
134.9999999999999
  0
ARC
  5
B7C3
330
B78F
100
AcDbEntity
  8
0
100
AcDbCircle
 10
7.536272079979029
 20
-8.707106781186492
 30
0.0
 40
1.0
100
AcDbArc
 50
135.0000000000001
 51
180.0
  0
ARC
  5
B7C4
330
B78F
100
AcDbEntity
  8
0
100
AcDbCircle
 10
-14.21738097601006
 20
-3.999999999999963
 30
0.0
 40
1.0
100
AcDbArc
 50
44.99999999999993
 51
89.99999999999936
  0
ARC
  5
B7C5
330
B78F
100
AcDbEntity
  8
0
100
AcDbCircle
 10
-9.510274194823402
 20
-8.707106781186626
 30
0.0
 40
1.0
100
AcDbArc
 50
0.0
 51
45.00000000000003
  0
LINE
  5
B7C6
330
B78F
100
AcDbEntity
  8
0
100
AcDbLine
 10
6.829165298792478
 20
-7.999999999999944
 30
0.0
 11
11.53627207997898
 21
-3.29289321881344
 31
0.0
  0
LINE
  5
B7C7
330
B78F
100
AcDbEntity
  8
0
100
AcDbLine
 10
-8.803167413636852
 20
-8.000000000000079
 30
0.0
 11
-13.51027419482351
 21
-3.292893218813414
 31
0.0
  0
LINE
  5
B7C8
330
B78F
100
AcDbEntity
  8
0
100
AcDbLine
 10
3.489725805176504
 20
-197.9370000000002
 30
0.0
 11
3.489725805176518
 21
0.0
 31
0.0
  0
ENDBLK
  5
B791
330
B78F
100
AcDbEntity
  8
0
100
AcDbBlockEnd
  0
BLOCK
  5
B7CA
330
B7C9
100
AcDbEntity
  8
0
100
AcDbBlockBegin
  2
PBWS100-Top
 70
     0
 10
0.0
 20
0.0
 30
0.0
  3
PBWS100-Top
  1

  0
LINE
  5
B7CC
330
B7C9
100
AcDbEntity
  8
0
100
AcDbLine
 10
6.74899894281682
 20
3.53627207997902
 30
0.0
 11
9.699619020070295
 21
3.536272079979086
 31
0.0
  0
LINE
  5
B7CD
330
B7C9
100
AcDbEntity
  8
0
100
AcDbLine
 10
3.398378865563375
 20
3.536272079978945
 30
0.0
 11
6.748998942816813
 21
3.53627207997902
 31
0.0
  0
LINE
  5
B7CE
330
B7C9
100
AcDbEntity
  8
0
100
AcDbLine
 10
-8.723483493701419
 20
-5.510274194823399
 30
0.0
 11
-11.67410357095495
 21
-5.510274194823399
 31
0.0
  0
LINE
  5
B7CF
330
B7C9
100
AcDbEntity
  8
0
100
AcDbLine
 10
-5.372863416447853
 20
-5.510274194823399
 30
0.0
 11
-8.723483493701419
 21
-5.510274194823399
 31
0.0
  0
LINE
  5
B7D0
330
B7C9
100
AcDbEntity
  8
0
100
AcDbLine
 10
-5.251001057183333
 20
9.536272079978754
 30
0.0
 11
-5.251001057183194
 21
3.536272079978751
 31
0.0
  0
LINE
  5
B7D1
330
B7C9
100
AcDbEntity
  8
0
100
AcDbLine
 10
-5.251001057183202
 20
3.536272079978753
 30
0.0
 11
1.337311284732237
 21
3.536272079978898
 31
0.0
  0
LINE
  5
B7D2
330
B7C9
100
AcDbEntity
  8
0
100
AcDbLine
 10
1.337311284732237
 20
3.536272079978898
 30
0.0
 11
3.398378865563373
 21
3.536272079978945
 31
0.0
  0
LINE
  5
B7D3
330
B7C9
100
AcDbEntity
  8
0
100
AcDbLine
 10
3.276516506298616
 20
-11.51027419482363
 30
0.0
 11
3.276516506298559
 21
-5.510274194823642
 31
0.0
  0
LINE
  5
B7D4
330
B7C9
100
AcDbEntity
  8
0
100
AcDbLine
 10
3.276516506298581
 20
-5.510274194823633
 30
0.0
 11
-3.311795835616857
 21
-5.510274194823705
 31
0.0
  0
LINE
  5
B7D5
330
B7C9
100
AcDbEntity
  8
0
100
AcDbLine
 10
-3.311795835616858
 20
-5.510274194823705
 30
0.0
 11
-5.372863416447854
 21
-5.510274194823725
 31
0.0
  0
LINE
  5
B7D6
330
B7C9
100
AcDbEntity
  8
0
100
AcDbLine
 10
18.30699894281586
 20
46.01299894247931
 30
0.0
 11
18.30699894281669
 21
9.536272079979273
 31
0.0
  0
LINE
  5
B7D7
330
B7C9
100
AcDbEntity
  8
0
100
AcDbLine
 10
9.699619020070302
 20
3.536272079979078
 30
0.0
 11
18.30699894281683
 21
3.536272079979261
 31
0.0
  0
LINE
  5
B7D8
330
B7C9
100
AcDbEntity
  8
0
100
AcDbLine
 10
18.30699894281682
 20
3.536272079979267
 30
0.0
 11
18.30699894281668
 21
9.536272079979267
 31
0.0
  0
LINE
  5
B7D9
330
B7C9
100
AcDbEntity
  8
0
100
AcDbLine
 10
-20.28100105718351
 20
17.25427207997842
 30
0.0
 11
-20.28100105718414
 21
46.01299894247847
 31
0.0
  0
LINE
  5
B7DA
330
B7C9
100
AcDbEntity
  8
0
100
AcDbLine
 10
-6.751001057183396
 20
12.25427207997873
 30
0.0
 11
-15.28100105718341
 21
12.25427207997854
 31
0.0
  0
LINE
  5
B7DB
330
B7C9
100
AcDbEntity
  8
0
100
AcDbLine
 10
-15.28100105718341
 20
12.25427207997854
 30
0.0
 11
-20.28100105718351
 21
17.25427207997842
 31
0.0
  0
LINE
  5
B7DC
330
B7C9
100
AcDbEntity
  8
0
100
AcDbLine
 10
13.30651650629862
 20
-14.22827419482356
 30
0.0
 11
18.30651650629866
 21
-19.22827419482349
 31
0.0
  0
ARC
  5
B7DD
330
B7C9
100
AcDbEntity
  8
0
100
AcDbCircle
 10
-6.751001057183369
 20
10.75427207997872
 30
0.0
 40
1.5
100
AcDbArc
 50
0.0
 51
90.00000000000104
  0
ARC
  5
B7DE
330
B7C9
100
AcDbEntity
  8
0
100
AcDbCircle
 10
4.776516506298621
 20
-12.72827419482364
 30
0.0
 40
1.5
100
AcDbArc
 50
180.0
 51
270.0000000000006
  0
LINE
  5
B7DF
330
B7C9
100
AcDbEntity
  8
0
100
AcDbLine
 10
-5.251001057183332
 20
9.536272079978756
 30
0.0
 11
-5.251001057183356
 21
10.75427207997876
 31
0.0
  0
LINE
  5
B7E0
330
B7C9
100
AcDbEntity
  8
0
100
AcDbLine
 10
3.276516506298613
 20
-11.51027419482363
 30
0.0
 11
3.276516506298633
 21
-12.72827419482366
 31
0.0
  0
LINE
  5
B7E1
330
B7C9
100
AcDbEntity
  8
0
100
AcDbLine
 10
-20.28148349370105
 20
-47.98700105732398
 30
0.0
 11
-20.28148349370141
 21
-11.5102741948239
 31
0.0
  0
LINE
  5
B7E2
330
B7C9
100
AcDbEntity
  8
0
100
AcDbLine
 10
-11.67410357095486
 20
-5.510274194823797
 30
0.0
 11
-20.28148349370147
 21
-5.510274194823862
 31
0.0
  0
LINE
  5
B7E3
330
B7C9
100
AcDbEntity
  8
0
100
AcDbLine
 10
-20.28148349370147
 20
-5.510274194823907
 30
0.0
 11
-20.28148349370141
 21
-11.51027419482389
 31
0.0
  0
LINE
  5
B7E4
330
B7C9
100
AcDbEntity
  8
0
100
AcDbLine
 10
18.30651650629866
 20
-19.22827419482349
 30
0.0
 11
18.30651650629896
 21
-47.98700105732358
 31
0.0
  0
LINE
  5
B7E5
330
B7C9
100
AcDbEntity
  8
0
100
AcDbLine
 10
4.776516506298634
 20
-14.22827419482364
 30
0.0
 11
13.30651650629862
 21
-14.22827419482356
 31
0.0
  0
ARC
  5
B7E6
330
B7C9
100
AcDbEntity
  8
0
100
AcDbCircle
 10
3.276516506298553
 20
-2.510274194823613
 30
0.0
 40
3.00000000000002
100
AcDbArc
 50
312.9825802798821
 51
154.000000000002
  0
LINE
  5
B7E7
330
B7C9
100
AcDbEntity
  8
0
100
AcDbLine
 10
5.321844428310638
 20
-4.704957245160953
 30
0.0
 11
7.367172350322698
 21
-6.899640295498265
 31
0.0
  0
ARC
  5
B7E8
330
B7C9
100
AcDbEntity
  8
0
100
AcDbCircle
 10
3.276516506298553
 20
-2.510274194823613
 30
0.0
 40
6.00000000000005
100
AcDbArc
 50
312.9825802798822
 51
154.0000000000015
  0
LINE
  5
B7E9
330
B7C9
100
AcDbEntity
  8
0
100
AcDbLine
 10
-2.11624777149654
 20
0.1199526859107256
 30
0.0
 11
-2.554618918285603
 21
-0.7788413603884539
 31
0.0
  0
LINE
  5
B7EA
330
B7C9
100
AcDbEntity
  8
0
100
AcDbLine
 10
0.141763220611931
 20
-2.093954800755637
 30
0.0
 11
0.5801343674009912
 21
-1.195160754456471
 31
0.0
  0
LINE
  5
B7EB
330
B7C9
100
AcDbEntity
  8
0
100
AcDbLine
 10
-7.296328979195184
 20
2.730955130316056
 30
0.0
 11
-9.341656901207239
 21
4.925638180653376
 31
0.0
  0
ARC
  5
B7EC
330
B7C9
100
AcDbEntity
  8
0
100
AcDbCircle
 10
-5.251001057183126
 20
0.5362720799787491
 30
0.0
 40
2.999999999999997
100
AcDbArc
 50
132.9825802798822
 51
334.0000000000007
  0
ARC
  5
B7ED
330
B7C9
100
AcDbEntity
  8
0
100
AcDbCircle
 10
-5.251001057183126
 20
0.5362720799787491
 30
0.0
 40
6.000000000000017
100
AcDbArc
 50
132.9825802798821
 51
334.0000000000009
  0
LINE
  5
B7EE
330
B7C9
100
AcDbEntity
  8
0
100
AcDbLine
 10
18.30699894281574
 20
52.01299894247918
 30
0.0
 11
13.30699894281574
 21
52.01299894247906
 31
0.0
  0
LINE
  5
B7EF
330
B7C9
100
AcDbEntity
  8
0
100
AcDbLine
 10
13.30699894281574
 20
52.01299894247906
 30
0.0
 11
13.30699894281577
 21
49.01299894247906
 31
0.0
  0
LINE
  5
B7F0
330
B7C9
100
AcDbEntity
  8
0
100
AcDbLine
 10
13.30699894281577
 20
49.01299894247906
 30
0.0
 11
18.3069989428157
 21
49.01299894247923
 31
0.0
  0
LINE
  5
B7F1
330
B7C9
100
AcDbEntity
  8
0
100
AcDbLine
 10
18.3069989428157
 20
49.01299894247923
 30
0.0
 11
18.30699894281574
 21
52.01299894247918
 31
0.0
  0
LINE
  5
B7F2
330
B7C9
100
AcDbEntity
  8
0
100
AcDbLine
 10
-20.28100105718435
 20
49.01299894247821
 30
0.0
 11
-15.28100105718423
 21
49.01299894247841
 31
0.0
  0
LINE
  5
B7F3
330
B7C9
100
AcDbEntity
  8
0
100
AcDbLine
 10
13.30651650629898
 20
-53.98700105732356
 30
0.0
 11
18.30651650629897
 21
-53.98700105732352
 31
0.0
  0
LINE
  5
B7F4
330
B7C9
100
AcDbEntity
  8
0
100
AcDbLine
 10
18.30651650629897
 20
-53.98700105732352
 30
0.0
 11
18.30651650629892
 21
-50.98700105732351
 31
0.0
  0
LINE
  5
B7F5
330
B7C9
100
AcDbEntity
  8
0
100
AcDbLine
 10
18.30651650629892
 20
-50.98700105732351
 30
0.0
 11
13.30651650629897
 21
-50.98700105732357
 31
0.0
  0
LINE
  5
B7F6
330
B7C9
100
AcDbEntity
  8
0
100
AcDbLine
 10
13.30651650629897
 20
-50.98700105732357
 30
0.0
 11
13.30651650629898
 21
-53.98700105732356
 31
0.0
  0
LINE
  5
B7F7
330
B7C9
100
AcDbEntity
  8
0
100
AcDbLine
 10
-15.28148349370104
 20
-53.98700105732384
 30
0.0
 11
-15.28148349370105
 21
-50.98700105732383
 31
0.0
  0
LINE
  5
B7F8
330
B7C9
100
AcDbEntity
  8
0
100
AcDbLine
 10
-15.28148349370105
 20
-50.98700105732383
 30
0.0
 11
-20.28148349370108
 21
-50.98700105732385
 31
0.0
  0
LINE
  5
B7F9
330
B7C9
100
AcDbEntity
  8
0
100
AcDbLine
 10
-20.28148349370105
 20
-53.98700105732391
 30
0.0
 11
-15.28148349370104
 21
-53.98700105732384
 31
0.0
  0
LINE
  5
B7FA
330
B7C9
100
AcDbEntity
  8
0
100
AcDbLine
 10
-20.28148349370108
 20
-50.98700105732385
 30
0.0
 11
-20.28148349370105
 21
-53.98700105732391
 31
0.0
  0
LINE
  5
B7FB
330
B7C9
100
AcDbEntity
  8
0
100
AcDbLine
 10
-15.28100105718429
 20
52.0129989424784
 30
0.0
 11
-20.28100105718438
 21
52.01299894247821
 31
0.0
  0
LINE
  5
B7FC
330
B7C9
100
AcDbEntity
  8
0
100
AcDbLine
 10
-20.28100105718438
 20
52.01299894247821
 30
0.0
 11
-20.28100105718435
 21
49.01299894247821
 31
0.0
  0
LINE
  5
B7FD
330
B7C9
100
AcDbEntity
  8
0
100
AcDbLine
 10
-15.28100105718423
 20
49.01299894247841
 30
0.0
 11
-15.28100105718429
 21
52.0129989424784
 31
0.0
  0
LINE
  5
B7FE
330
B7C9
100
AcDbEntity
  8
0
100
AcDbLine
 10
13.30699894281577
 20
49.01299894247906
 30
0.0
 11
-15.28100105718422
 21
49.01299894247841
 31
0.0
  0
LINE
  5
B7FF
330
B7C9
100
AcDbEntity
  8
0
100
AcDbLine
 10
-15.28148349370105
 20
-50.98700105732383
 30
0.0
 11
13.30651650629897
 21
-50.98700105732357
 31
0.0
  0
LINE
  5
B800
330
B7C9
100
AcDbEntity
  8
0
100
AcDbLine
 10
-15.28148349370104
 20
-53.98700105732384
 30
0.0
 11
13.30651650629898
 21
-53.98700105732356
 31
0.0
  0
LINE
  5
B801
330
B7C9
100
AcDbEntity
  8
0
100
AcDbLine
 10
13.30699894281574
 20
52.01299894247906
 30
0.0
 11
-15.28100105718429
 21
52.0129989424784
 31
0.0
  0
LINE
  5
B802
330
B7C9
100
AcDbEntity
  8
0
100
AcDbLine
 10
18.3069989428158
 20
49.01299894247937
 30
0.0
 11
18.30699894281588
 21
46.0129989424793
 31
0.0
  0
LINE
  5
B803
330
B7C9
100
AcDbEntity
  8
0
100
AcDbLine
 10
-20.28100105718424
 20
49.0129989424785
 30
0.0
 11
-20.28100105718418
 21
46.01299894247847
 31
0.0
  0
LINE
  5
B804
330
B7C9
100
AcDbEntity
  8
0
100
AcDbLine
 10
-20.28148349370105
 20
-50.98700105732397
 30
0.0
 11
-20.28148349370108
 21
-47.98700105732398
 31
0.0
  0
LINE
  5
B805
330
B7C9
100
AcDbEntity
  8
0
100
AcDbLine
 10
18.30651650629898
 20
-50.98700105732362
 30
0.0
 11
18.30651650629896
 21
-47.98700105732359
 31
0.0
  0
SPLINE
  5
B806
330
B7C9
100
AcDbEntity
  8
0
100
AcDbSpline
210
0.0
220
0.0
230
1.0
 70
     8
 71
     3
 72
    14
 73
    10
 74
     0
 42
0.000000001
 43
0.0000000001
 40
-0.7853981633974483
 40
-0.7853981633974483
 40
-0.7853981633974483
 40
-0.7853981633974483
 40
0.4440817313539139
 40
0.4440817313539139
 40
0.4440817313539139
 40
1.56916514439576
 40
1.56916514439576
 40
1.56916514439576
 40
2.356194490192132
 40
2.356194490192132
 40
2.356194490192132
 40
2.356194490192132
 10
5.321844428310527
 20
-4.704957245161072
 30
0.0
 10
5.321844428310527
 20
-4.704957245161072
 30
0.0
 10
5.097732956121824
 20
-4.933499239445801
 30
0.0
 10
4.716499143850819
 20
-5.142089158598302
 30
0.0
 10
4.367636311275946
 20
-5.332967479722602
 30
0.0
 10
3.903809848471364
 20
-5.459145256515755
 30
0.0
 10
3.606732286143183
 20
-5.492045067768409
 30
0.0
 10
3.398917686070297
 20
-5.515059465302716
 30
0.0
 10
3.276516506298467
 20
-5.510274194823674
 30
0.0
 10
3.276516506298404
 20
-5.510274194823674
 30
0.0
  0
SPLINE
  5
B807
330
B7C9
100
AcDbEntity
  8
0
100
AcDbSpline
210
0.0
220
0.0
230
1.0
 70
     8
 71
     3
 72
    14
 73
    10
 74
     0
 42
0.000000001
 43
0.0000000001
 40
-0.7853981633973789
 40
-0.7853981633973789
 40
-0.7853981633973789
 40
-0.7853981633973789
 40
0.3160919271552691
 40
0.3160919271552691
 40
0.3160919271552691
 40
1.299764733775541
 40
1.299764733775541
 40
1.299764733775541
 40
2.356194490192187
 40
2.356194490192187
 40
2.356194490192187
 40
2.356194490192187
 10
3.276516506298147
 20
-8.510274194823615
 30
0.0
 10
3.276516506298203
 20
-8.510274194823615
 30
0.0
 10
3.779084263782378
 20
-8.534439768188823
 30
0.0
 10
4.5005686701464
 20
-8.384088653944655
 30
0.0
 10
5.144881857371518
 20
-8.249819354751188
 30
0.0
 10
5.917324802815212
 20
-7.936034745095234
 30
0.0
 10
6.461771453089639
 20
-7.594971916806989
 30
0.0
 10
7.046487873285755
 20
-7.228682518354181
 30
0.0
 10
7.367172350322253
 20
-6.899640295498601
 30
0.0
 10
7.367172350322345
 20
-6.899640295498516
 30
0.0
  0
SPLINE
  5
B808
330
B7C9
100
AcDbEntity
  8
0
100
AcDbSpline
210
0.0
220
0.0
230
1.0
 70
     8
 71
     3
 72
    14
 73
    10
 74
     0
 42
0.000000001
 43
0.0000000001
 40
-2.356194490192288
 40
-2.356194490192288
 40
-2.356194490192288
 40
-2.356194490192288
 40
-1.126714595440931
 40
-1.126714595440931
 40
-1.126714595440931
 40
-0.0016311823990702
 40
-0.0016311823990702
 40
-0.0016311823990702
 40
0.7853981633974369
 40
0.7853981633974369
 40
0.7853981633974369
 40
0.7853981633974369
 10
-7.296328979195211
 20
2.730955130316031
 30
0.0
 10
-7.296328979195191
 20
2.730955130316051
 30
0.0
 10
-7.072217507006487
 20
2.959497124600802
 30
0.0
 10
-6.690983694735496
 20
3.168087043753317
 30
0.0
 10
-6.342120862160629
 20
3.358965364877639
 30
0.0
 10
-5.878294399356066
 20
3.485143141670803
 30
0.0
 10
-5.581216837027907
 20
3.518042952923468
 30
0.0
 10
-5.373402236955007
 20
3.541057350457788
 30
0.0
 10
-5.251001057183195
 20
3.536272079978751
 30
0.0
 10
-5.251001057183191
 20
3.536272079978748
 30
0.0
  0
SPLINE
  5
B809
330
B7C9
100
AcDbEntity
  8
0
100
AcDbSpline
210
0.0
220
0.0
230
1.0
 70
     8
 71
     3
 72
    14
 73
    10
 74
     0
 42
0.000000001
 43
0.0000000001
 40
-0.7853981633974369
 40
-0.7853981633974369
 40
-0.7853981633974369
 40
-0.7853981633974369
 40
0.316091927155218
 40
0.316091927155218
 40
0.316091927155218
 40
1.299764733775492
 40
1.299764733775492
 40
1.299764733775492
 40
2.356194490192299
 40
2.356194490192299
 40
2.356194490192299
 40
2.356194490192299
 10
-5.251001057183247
 20
6.536272079978788
 30
0.0
 10
-5.251001057183258
 20
6.536272079978788
 30
0.0
 10
-5.753568814667398
 20
6.560437653343957
 30
0.0
 10
-6.475053221031394
 20
6.410086539099745
 30
0.0
 10
-7.119366408256486
 20
6.275817239906242
 30
0.0
 10
-7.891809353700173
 20
5.962032630250229
 30
0.0
 10
-8.436256003974589
 20
5.620969801961937
 30
0.0
 10
-9.020972424170786
 20
5.254680403509023
 30
0.0
 10
-9.34165690120729
 20
4.925638180653363
 30
0.0
 10
-9.341656901207318
 20
4.925638180653336
 30
0.0
  0
ENDBLK
  5
B7CB
330
B7C9
100
AcDbEntity
  8
0
100
AcDbBlockEnd
  0
BLOCK
  5
B80B
330
B80A
100
AcDbEntity
  8
0
100
AcDbBlockBegin
  2
PBWS100-Bottom
 70
     0
 10
0.0
 20
0.0
 30
0.0
  3
PBWS100-Bottom
  1

  0
LINE
  5
B80D
330
B80A
100
AcDbEntity
  8
0
100
AcDbLine
 10
-5.251001057183332
 20
-9.536272079978761
 30
0.0
 11
-5.251001057183263
 21
-6.53627207997875
 31
0.0
  0
LINE
  5
B80E
330
B80A
100
AcDbEntity
  8
0
100
AcDbLine
 10
3.276516506298614
 20
11.51027419482365
 30
0.0
 11
3.276516506298585
 21
8.510274194823644
 31
0.0
  0
LINE
  5
B80F
330
B80A
100
AcDbEntity
  8
0
100
AcDbLine
 10
-5.251001057183165
 20
-6.536272079978793
 30
0.0
 11
6.748998942816854
 21
-6.536272079979069
 31
0.0
  0
LINE
  5
B810
330
B80A
100
AcDbEntity
  8
0
100
AcDbLine
 10
-5.25100105718311
 20
-3.536272079978785
 30
0.0
 11
6.748998942816922
 21
-3.536272079979061
 31
0.0
  0
LINE
  5
B811
330
B80A
100
AcDbEntity
  8
0
100
AcDbLine
 10
6.748998942816922
 20
-3.536272079979061
 30
0.0
 11
6.748998942816855
 21
-6.536272079979069
 31
0.0
  0
LINE
  5
B812
330
B80A
100
AcDbEntity
  8
0
100
AcDbLine
 10
18.30699894281674
 20
-6.536272079979279
 30
0.0
 11
6.748998942816772
 21
-6.536272079978822
 31
0.0
  0
LINE
  5
B813
330
B80A
100
AcDbEntity
  8
0
100
AcDbLine
 10
6.748998942816836
 20
-3.536272079979079
 30
0.0
 11
18.30699894281683
 21
-3.536272079979261
 31
0.0
  0
LINE
  5
B814
330
B80A
100
AcDbEntity
  8
0
100
AcDbLine
 10
18.30699894281683
 20
-3.536272079979261
 30
0.0
 11
18.30699894281674
 21
-6.536272079979279
 31
0.0
  0
LINE
  5
B815
330
B80A
100
AcDbEntity
  8
0
100
AcDbLine
 10
3.276516506298685
 20
8.510274194823644
 30
0.0
 11
-8.723483493701348
 21
8.510274194823752
 31
0.0
  0
LINE
  5
B816
330
B80A
100
AcDbEntity
  8
0
100
AcDbLine
 10
3.276516506298667
 20
5.510274194823637
 30
0.0
 11
-8.723483493701365
 21
5.510274194823746
 31
0.0
  0
LINE
  5
B817
330
B80A
100
AcDbEntity
  8
0
100
AcDbLine
 10
-8.723483493701365
 20
5.510274194823746
 30
0.0
 11
-8.723483493701348
 21
8.510274194823752
 31
0.0
  0
LINE
  5
B818
330
B80A
100
AcDbEntity
  8
0
100
AcDbLine
 10
-20.28148349370143
 20
8.510274194823882
 30
0.0
 11
-8.723483493701404
 21
8.510274194823363
 31
0.0
  0
LINE
  5
B819
330
B80A
100
AcDbEntity
  8
0
100
AcDbLine
 10
-8.723483493701445
 20
5.510274194823356
 30
0.0
 11
-20.28148349370147
 21
5.510274194823862
 31
0.0
  0
LINE
  5
B81A
330
B80A
100
AcDbEntity
  8
0
100
AcDbLine
 10
-20.28148349370147
 20
5.510274194823862
 30
0.0
 11
-20.28148349370143
 21
8.510274194823882
 31
0.0
  0
LINE
  5
B81B
330
B80A
100
AcDbEntity
  8
0
100
AcDbLine
 10
-20.28148349370145
 20
8.51027419482391
 30
0.0
 11
-20.28148349370141
 21
11.51027419482389
 31
0.0
  0
LINE
  5
B81C
330
B80A
100
AcDbEntity
  8
0
100
AcDbLine
 10
-20.28148349370141
 20
11.51027419482389
 30
0.0
 11
-20.28148349370106
 21
47.98700105732398
 31
0.0
  0
LINE
  5
B81D
330
B80A
100
AcDbEntity
  8
0
100
AcDbLine
 10
18.30699894281675
 20
-6.536272079979266
 30
0.0
 11
18.30699894281669
 21
-9.536272079979285
 31
0.0
  0
LINE
  5
B81E
330
B80A
100
AcDbEntity
  8
0
100
AcDbLine
 10
18.30699894281668
 20
-9.536272079979283
 30
0.0
 11
18.30699894281586
 21
-46.01299894247931
 31
0.0
  0
LINE
  5
B81F
330
B80A
100
AcDbEntity
  8
0
100
AcDbLine
 10
18.30651650629867
 20
19.22827419482349
 30
0.0
 11
13.30651650629862
 21
14.22827419482356
 31
0.0
  0
LINE
  5
B820
330
B80A
100
AcDbEntity
  8
0
100
AcDbLine
 10
-20.28100105718351
 20
-17.25427207997842
 30
0.0
 11
-15.28100105718341
 21
-12.25427207997854
 31
0.0
  0
LINE
  5
B821
330
B80A
100
AcDbEntity
  8
0
100
AcDbLine
 10
3.276516506298607
 20
12.72827419482366
 30
0.0
 11
3.276516506298606
 21
11.51027419482365
 31
0.0
  0
LINE
  5
B822
330
B80A
100
AcDbEntity
  8
0
100
AcDbLine
 10
-5.251001057183357
 20
-10.75427207997876
 30
0.0
 11
-5.251001057183324
 21
-9.536272079978761
 31
0.0
  0
ARC
  5
B823
330
B80A
100
AcDbEntity
  8
0
100
AcDbCircle
 10
4.776516506298621
 20
12.72827419482364
 30
0.0
 40
1.5
100
AcDbArc
 50
89.99999999999948
 51
180.0
  0
ARC
  5
B824
330
B80A
100
AcDbEntity
  8
0
100
AcDbCircle
 10
-6.751001057183362
 20
-10.75427207997872
 30
0.0
 40
1.5
100
AcDbArc
 50
269.9999999999989
 51
0.0
  0
LINE
  5
B825
330
B80A
100
AcDbEntity
  8
0
100
AcDbLine
 10
4.776516506298636
 20
14.22827419482364
 30
0.0
 11
13.30651650629862
 21
14.22827419482356
 31
0.0
  0
LINE
  5
B826
330
B80A
100
AcDbEntity
  8
0
100
AcDbLine
 10
18.30651650629896
 20
47.98700105732358
 30
0.0
 11
18.30651650629867
 21
19.22827419482349
 31
0.0
  0
LINE
  5
B827
330
B80A
100
AcDbEntity
  8
0
100
AcDbLine
 10
-6.751001057183392
 20
-12.25427207997872
 30
0.0
 11
-15.28100105718341
 21
-12.25427207997854
 31
0.0
  0
LINE
  5
B828
330
B80A
100
AcDbEntity
  8
0
100
AcDbLine
 10
-20.28100105718414
 20
-46.01299894247846
 30
0.0
 11
-20.28100105718351
 21
-17.25427207997842
 31
0.0
  0
LINE
  5
B829
330
B80A
100
AcDbEntity
  8
0
100
AcDbLine
 10
18.30699894281575
 20
-52.01299894247937
 30
0.0
 11
-20.28100105718433
 21
-52.01299894247849
 31
0.0
  0
LINE
  5
B82A
330
B80A
100
AcDbEntity
  8
0
100
AcDbLine
 10
18.30699894281574
 20
-52.01299894247938
 30
0.0
 11
18.30699894281587
 21
-46.01299894247931
 31
0.0
  0
LINE
  5
B82B
330
B80A
100
AcDbEntity
  8
0
100
AcDbLine
 10
-20.28100105718418
 20
-46.01299894247845
 30
0.0
 11
-20.2810010571843
 21
-52.01299894247852
 31
0.0
  0
LINE
  5
B82C
330
B80A
100
AcDbEntity
  8
0
100
AcDbLine
 10
-20.28148349370097
 20
53.98700105732395
 30
0.0
 11
18.30651650629899
 21
53.98700105732356
 31
0.0
  0
LINE
  5
B82D
330
B80A
100
AcDbEntity
  8
0
100
AcDbLine
 10
-20.28148349370098
 20
53.98700105732396
 30
0.0
 11
-20.28148349370103
 21
47.98700105732397
 31
0.0
  0
LINE
  5
B82E
330
B80A
100
AcDbEntity
  8
0
100
AcDbLine
 10
18.30651650629896
 20
47.98700105732359
 30
0.0
 11
18.30651650629901
 21
53.98700105732361
 31
0.0
  0
LINE
  5
B82F
330
B80A
100
AcDbEntity
  8
0
100
AcDbLine
 10
0.1417632206120571
 20
2.093954800755577
 30
0.0
 11
0.5801343674011074
 21
1.195160754456416
 31
0.0
  0
LINE
  5
B830
330
B80A
100
AcDbEntity
  8
0
100
AcDbLine
 10
-2.554618918285488
 20
0.7788413603884198
 30
0.0
 11
-2.116247771496409
 21
-0.119952685910773
 31
0.0
  0
ARC
  5
B831
330
B80A
100
AcDbEntity
  8
0
100
AcDbCircle
 10
-5.251001057183016
 20
-0.5362720799787862
 30
0.0
 40
6.00000000000001
100
AcDbArc
 50
25.99999999999881
 51
269.9999999999986
  0
ARC
  5
B832
330
B80A
100
AcDbEntity
  8
0
100
AcDbCircle
 10
-5.251001057183016
 20
-0.5362720799787862
 30
0.0
 40
3.000000000000012
100
AcDbArc
 50
25.99999999999931
 51
269.9999999999982
  0
ARC
  5
B833
330
B80A
100
AcDbEntity
  8
0
100
AcDbCircle
 10
3.276516506298638
 20
2.510274194823626
 30
0.0
 40
6.000000000000021
100
AcDbArc
 50
205.9999999999992
 51
89.9999999999996
  0
ARC
  5
B834
330
B80A
100
AcDbEntity
  8
0
100
AcDbCircle
 10
3.276516506298638
 20
2.510274194823626
 30
0.0
 40
3.000000000000023
100
AcDbArc
 50
205.9999999999993
 51
89.99999999999952
  0
ENDBLK
  5
B80C
330
B80A
100
AcDbEntity
  8
0
100
AcDbBlockEnd
  0
BLOCK
  5
B836
330
B835
100
AcDbEntity
  8
0
100
AcDbBlockBegin
  2
PBWS100-ISO
 70
     0
 10
0.0
 20
0.0
 30
0.0
  3
PBWS100-ISO
  1

  0
LINE
  5
B838
330
B835
100
AcDbEntity
  8
0
100
AcDbLine
 10
10.79010607850108
 20
-110.2882626378773
 30
0.0
 11
10.79010607850084
 21
10.50179205482756
 31
0.0
  0
ELLIPSE
  5
B839
330
B835
100
AcDbEntity
  8
0
100
AcDbEllipse
 10
8.52736437870406
 20
47.31377014705798
 30
0.0
 11
-1.787816710194961
 21
6.672222797069483
 31
0.0
210
0.0
220
0.0
230
1.0
 40
0.5176380902050547
 41
2.511757249801155
 42
2.700305999688675
  0
LINE
  5
B83A
330
B835
100
AcDbEntity
  8
0
100
AcDbLine
 10
7.937815982857112
 20
-111.0909819261336
 30
0.0
 11
8.668785734941481
 21
-111.5130075092689
 31
0.0
  0
LINE
  5
B83B
330
B835
100
AcDbEntity
  8
0
100
AcDbLine
 10
8.668785734941428
 20
9.277047183436053
 30
0.0
 11
8.668785734941481
 21
-111.5130075092689
 31
0.0
  0
LINE
  5
B83C
330
B835
100
AcDbEntity
  8
0
100
AcDbLine
 10
8.668785734941481
 20
-111.5130075092689
 30
0.0
 11
10.79010607850108
 21
-110.2882626378773
 31
0.0
  0
LINE
  5
B83D
330
B835
100
AcDbEntity
  8
0
100
AcDbLine
 10
18.96284625545526
 20
41.7091078744664
 30
0.0
 11
10.79010607850084
 21
10.50179205482756
 31
0.0
  0
LINE
  5
B83E
330
B835
100
AcDbEntity
  8
0
100
AcDbLine
 10
8.668785734941428
 20
9.277047183436053
 30
0.0
 11
16.84152591189566
 21
40.48436300307478
 31
0.0
  0
LINE
  5
B83F
330
B835
100
AcDbEntity
  8
0
100
AcDbLine
 10
16.84152591189566
 20
40.48436300307478
 30
0.0
 11
18.96284625545526
 21
41.7091078744664
 31
0.0
  0
LINE
  5
B840
330
B835
100
AcDbEntity
  8
0
100
AcDbLine
 10
10.79010607850084
 20
10.50179205482756
 30
0.0
 11
8.668785734941428
 21
9.277047183436053
 31
0.0
  0
ELLIPSE
  5
B841
330
B835
100
AcDbEntity
  8
0
100
AcDbEllipse
 10
11.46229598145905
 20
44.4065594323728
 30
0.0
 11
-0.833795647379515
 21
0.552073200228907
 31
0.0
210
0.0
220
0.0
230
1.0
 40
0.7846600913512829
 41
0.0779983288728219
 42
1.198023075403802
  0
SPLINE
  5
B842
330
B835
100
AcDbEntity
  8
0
100
AcDbSpline
210
0.0
220
0.0
230
1.0
 70
     8
 71
     3
 72
    18
 73
    14
 74
     0
 42
0.000000001
 43
0.0000000001
 40
-0.8068545796853662
 40
-0.8068545796853662
 40
-0.8068545796853662
 40
-0.8068545796853662
 40
-0.6777094229505432
 40
-0.6777094229505432
 40
-0.4996954415939497
 40
-0.4996954415939497
 40
-0.3131469925253243
 40
-0.3131469925253243
 40
-0.1900102218698263
 40
-0.1900102218698263
 40
-0.0730808545653178
 40
-0.0730808545653178
 40
0.0
 40
0.0
 40
0.0
 40
0.0
 10
10.75518920027251
 20
43.99831114190893
 30
0.0
 10
10.90252000213431
 20
44.28233972725515
 30
0.0
 10
11.04431789325485
 20
44.64489994310226
 30
0.0
 10
11.41922572886986
 20
45.60627402480307
 30
0.0
 10
11.66881706654042
 20
46.23881126724824
 30
0.0
 10
12.29076014615306
 20
47.53005553704723
 30
0.0
 10
12.66908227537459
 20
48.18943939553047
 30
0.0
 10
13.35192112629919
 20
49.20055795195371
 30
0.0
 10
13.63679470601834
 20
49.58145703763428
 30
0.0
 10
14.17494263009267
 20
50.26809387456679
 30
0.0
 10
14.42877629016871
 20
50.57652549899272
 30
0.0
 10
14.78011832124683
 20
51.0306953531135
 30
0.0
 10
14.90032252451961
 20
51.19421503498756
 30
0.0
 10
14.99782988739172
 20
51.34678037025856
 30
0.0
  0
ELLIPSE
  5
B843
330
B835
100
AcDbEntity
  8
0
100
AcDbEllipse
 10
14.99782988739171
 20
50.53028378933084
 30
0.0
 11
-0.8950072398365659
 21
0.4460516120810839
 31
0.0
210
0.0
220
0.0
230
1.0
 40
0.7846600913512904
 41
5.08516223177579
 42
6.20518697830679
  0
ELLIPSE
  5
B844
330
B835
100
AcDbEntity
  8
0
100
AcDbEllipse
 10
9.375892516127898
 20
43.84384032248849
 30
0.0
 11
-0.4440557184830159
 21
-0.8959991734831701
 31
0.0
210
0.0
220
0.0
230
1.0
 40
0.616682586728488
 41
4.673210178914484
 42
5.459858343614024
  0
ELLIPSE
  5
B845
330
B835
100
AcDbEntity
  8
0
100
AcDbEllipse
 10
8.527364378704067
 20
48.13026672798571
 30
0.0
 11
1.300230334687503
 21
-4.85252567059592
 31
0.0
210
0.0
220
0.0
230
0.9999999999999998
 40
0.5176380902050544
 41
5.855547854923095
 42
6.712520614354342
  0
ELLIPSE
  5
B846
330
B835
100
AcDbEntity
  8
0
100
AcDbEllipse
 10
8.527364378704067
 20
48.13026672798571
 30
0.0
 11
1.300230334687503
 21
-4.85252567059592
 31
0.0
210
0.0
220
0.0
230
0.9999999999999998
 40
0.5176380902050544
 41
5.59555058174567
 42
5.855547854923094
  0
ELLIPSE
  5
B847
330
B835
100
AcDbEntity
  8
0
100
AcDbEllipse
 10
10.54218024425478
 20
53.10275431021048
 30
0.0
 11
-0.163879913165695
 21
0.9864802958299879
 31
0.0
210
0.0
220
0.0
230
1.0
 40
0.2257768980813962
 41
4.528811736611206
 42
5.648836483142187
  0
SPLINE
  5
B848
330
B835
100
AcDbEntity
  8
0
100
AcDbSpline
210
0.0
220
0.0
230
1.0
 70
     8
 71
     3
 72
    12
 73
     8
 74
     0
 42
0.000000001
 43
0.0000000001
 40
-0.8068546120429132
 40
-0.8068546120429132
 40
-0.8068546120429132
 40
-0.8068546120429132
 40
-0.678447253590467
 40
-0.678447253590467
 40
-0.5004982556602967
 40
-0.5004982556602967
 40
-0.3929647368484816
 40
-0.3929647368484816
 40
-0.3929647368484816
 40
-0.3929647368484816
 10
10.54218024425478
 20
53.91925089113819
 30
0.0
 10
10.07787585425631
 20
53.82033568090322
 30
0.0
 10
9.629157199277113
 20
53.63795180626723
 30
0.0
 10
8.637930683920977
 20
53.03684921974912
 30
0.0
 10
8.124413667957234
 20
52.55749737728039
 30
0.0
 10
7.41822871019703
 20
51.67331662075604
 30
0.0
 10
7.178082852330356
 20
51.31417470962313
 30
0.0
 10
6.96903270320732
 20
50.93828161672394
 30
0.0
  0
ELLIPSE
  5
B849
330
B835
100
AcDbEntity
  8
0
100
AcDbEllipse
 10
10.30553897175601
 20
51.21015546787988
 30
0.0
 11
-4.852525670595825
 21
-1.300230334687755
 31
0.0
210
0.0
220
0.0
230
0.9999999999999998
 40
0.5176380902050481
 41
2.712257346414517
 42
4.526244578888833
  0
SPLINE
  5
B84A
330
B835
100
AcDbEntity
  8
0
100
AcDbSpline
210
0.0
220
0.0
230
1.0
 70
     8
 71
     3
 72
    14
 73
    10
 74
     0
 42
0.000000001
 43
0.0000000001
 40
-0.4034260284698286
 40
-0.4034260284698286
 40
-0.4034260284698286
 40
-0.4034260284698286
 40
-0.3131469925253199
 40
-0.3131469925253199
 40
-0.1900102218698228
 40
-0.1900102218698228
 40
-0.0730808545653165
 40
-0.0730808545653165
 40
0.0
 40
0.0
 40
0.0
 40
0.0
 10
-12.50948871211385
 20
52.07246623061267
 30
0.0
 10
-12.69002101392706
 20
52.17671617063031
 30
0.0
 10
-12.88135102845049
 20
52.2498387176926
 30
0.0
 10
-13.35192112629927
 20
52.34479736801645
 30
0.0
 10
-13.63679470601843
 20
52.33797383820202
 30
0.0
 10
-14.17494263009275
 20
52.19676604868516
 30
0.0
 10
-14.42877629016878
 20
52.06809978109048
 30
0.0
 10
-14.78011832124689
 20
51.7692855704189
 30
0.0
 10
-14.90032252451965
 20
51.63291487730751
 30
0.0
 10
-14.99782988739176
 20
51.48034954203652
 30
0.0
  0
ELLIPSE
  5
B84B
330
B835
100
AcDbEntity
  8
0
100
AcDbEllipse
 10
-14.99782988739172
 20
50.6638529611088
 30
0.0
 11
0.8950072398365756
 21
-0.4460516120810761
 31
0.0
210
0.0
220
0.0
230
1.0
 40
0.7846600913513104
 41
0.8235448316550399
 42
1.943569578186043
  0
SPLINE
  5
B84C
330
B835
100
AcDbEntity
  8
0
100
AcDbSpline
210
0.0
220
0.0
230
1.0
 70
     8
 71
     3
 72
    18
 73
    14
 74
     0
 42
0.000000001
 43
0.0000000001
 40
0.0
 40
0.0
 40
0.0
 40
0.0
 40
0.0730808545653165
 40
0.0730808545653165
 40
0.1900102218698228
 40
0.1900102218698228
 40
0.3131469925253199
 40
0.3131469925253199
 40
0.499695441593943
 40
0.499695441593943
 40
0.6777094229505359
 40
0.6777094229505359
 40
0.7732860835194061
 40
0.7732860835194061
 40
0.7732860835194061
 40
0.7732860835194061
 10
-14.1328154202412
 20
50.87586670705579
 30
0.0
 10
-14.06345321345208
 20
50.96635869171523
 30
0.0
 10
-13.97603296012858
 20
51.04449322381917
 30
0.0
 10
-13.71597160026365
 20
51.20788524450294
 30
0.0
 10
-13.52407515426731
 20
51.26910452948102
 30
0.0
 10
-13.10893614189748
 20
51.31186618290382
 30
0.0
 10
-12.88487321276212
 20
51.28956299529605
 30
0.0
 10
-12.33591309431585
 20
51.1328980920412
 30
0.0
 10
-12.02021032204397
 20
50.94732458159345
 30
0.0
 10
-11.47679535160544
 20
50.43258797696452
 30
0.0
 10
-11.24510773210069
 20
50.10864879608397
 30
0.0
 10
-10.92239363209865
 20
49.52504021922191
 30
0.0
 10
-10.81546780116722
 20
49.30493702648454
 30
0.0
 10
-10.70921281647136
 20
49.07713350066275
 30
0.0
  0
ELLIPSE
  5
B84D
330
B835
100
AcDbEntity
  8
0
100
AcDbEllipse
 10
-10.54218024425502
 20
48.09138244022919
 30
0.0
 11
-0.1638799131656578
 21
0.9864802958299856
 31
0.0
210
0.0
220
0.0
230
1.0
 40
0.2257768980813541
 41
5.648836483142225
 42
6.283185307179602
  0
SPLINE
  5
B84E
330
B835
100
AcDbEntity
  8
0
100
AcDbSpline
210
0.0
220
0.0
230
1.0
 70
     8
 71
     3
 72
    12
 73
     8
 74
     0
 42
0.000000001
 43
0.0000000001
 40
-0.806854612042899
 40
-0.806854612042899
 40
-0.806854612042899
 40
-0.806854612042899
 40
-0.6784472535904598
 40
-0.6784472535904598
 40
-0.5004982556602933
 40
-0.5004982556602933
 40
-0.4034259882124037
 40
-0.4034259882124037
 40
-0.4034259882124037
 40
-0.4034259882124037
 10
-10.54218024425502
 20
48.90787902115691
 30
0.0
 10
-10.07787585425658
 20
49.00679423139187
 30
0.0
 10
-9.629157199277397
 20
49.1030369751909
 30
0.0
 10
-8.637930683921268
 20
49.24401841595694
 30
0.0
 10
-8.124413667957504
 20
49.25289810612619
 30
0.0
 10
-7.444106226049592
 20
49.1047171689166
 30
0.0
 10
-7.225052068352299
 20
49.02146851735867
 30
0.0
 10
-7.030922230988281
 20
48.9094139918414
 30
0.0
  0
ELLIPSE
  5
B84F
330
B835
100
AcDbEntity
  8
0
100
AcDbEllipse
 10
-10.30553897175592
 20
51.61697444441525
 30
0.0
 11
4.852525670595863
 21
1.300230334687733
 31
0.0
210
0.0
220
0.0
230
0.9999999999999998
 40
0.5176380902050412
 41
2.712257346414549
 42
4.526244578888777
  0
ELLIPSE
  5
B850
330
B835
100
AcDbEntity
  8
0
100
AcDbEllipse
 10
-10.30553897175592
 20
50.80047786348753
 30
0.0
 11
-4.080576887746072
 21
-0.7357344851542882
 31
0.0
210
0.0
220
0.0
230
1.0
 40
0.4274251230124719
 41
5.844164817253101
 42
6.751158433490068
  0
SPLINE
  5
B851
330
B835
100
AcDbEntity
  8
0
100
AcDbSpline
210
0.0
220
0.0
230
1.0
 70
     8
 71
     3
 72
    20
 73
    16
 74
     0
 42
0.000000001
 43
0.0000000001
 40
0.0252297526444608
 40
0.0252297526444608
 40
0.0252297526444608
 40
0.0252297526444608
 40
0.084994751812172
 40
0.084994751812172
 40
0.1677016658694106
 40
0.1677016658694106
 40
0.286295837375353
 40
0.286295837375353
 40
0.4375746863367444
 40
0.4375746863367444
 40
0.5888535352981358
 40
0.5888535352981358
 40
0.7261017491024934
 40
0.7261017491024934
 40
0.7816239974514177
 40
0.7816239974514177
 40
0.7816239974514177
 40
0.7816239974514177
 10
14.05475548903318
 20
50.88749238345272
 30
0.0
 10
14.00917034851707
 20
50.80853660400864
 30
0.0
 10
13.94539444957423
 20
50.71030641965524
 30
0.0
 10
13.76040945012925
 20
50.44559855214746
 30
0.0
 10
13.62703627432642
 20
50.26737232015598
 30
0.0
 10
13.27194662200065
 20
49.79342665669971
 30
0.0
 10
13.03788935778332
 20
49.47985414737011
 30
0.0
 10
12.51154252347076
 20
48.71610662519774
 30
0.0
 10
12.22153487469004
 20
48.25072163631495
 30
0.0
 10
11.70546159815491
 20
47.3031566950733
 30
0.0
 10
11.47883975490608
 20
46.8200975203474
 30
0.0
 10
11.10797973471622
 20
45.97276474889492
 30
0.0
 10
10.95560449613497
 20
45.60056082215319
 30
0.0
 10
10.77269723260833
 20
45.21327674144846
 30
0.0
 10
10.72375338704802
 20
45.11802750269549
 30
0.0
 10
10.68140706532009
 20
45.04468152194907
 30
0.0
  0
SPLINE
  5
B852
330
B835
100
AcDbEntity
  8
0
100
AcDbSpline
210
0.0
220
0.0
230
1.0
 70
     8
 71
     3
 72
    16
 73
    12
 74
     0
 42
0.000000001
 43
0.0000000001
 40
0.4034260284698279
 40
0.4034260284698279
 40
0.4034260284698279
 40
0.4034260284698279
 40
0.4841117387129347
 40
0.4841117387129347
 40
0.5647974489560415
 40
0.5647974489560415
 40
0.6454831591991482
 40
0.6454831591991482
 40
0.726168869442255
 40
0.726168869442255
 40
0.7927181233992564
 40
0.7927181233992564
 40
0.7927181233992564
 40
0.7927181233992564
 10
-12.50861785334921
 20
52.07242604882115
 30
0.0
 10
-12.29344910499665
 20
51.94819831403862
 30
0.0
 10
-12.09702326815839
 20
51.79428059085275
 30
0.0
 10
-11.74712367431009
 20
51.44628558104087
 30
0.0
 10
-11.59348387116304
 20
51.25248535000196
 30
0.0
 10
-11.32138685560299
 20
50.84029575832556
 30
0.0
 10
-11.20266634612951
 20
50.62177122329206
 30
0.0
 10
-10.98700998503935
 20
50.16861784224872
 30
0.0
 10
-10.88999495778792
 20
49.93378355814141
 30
0.0
 10
-10.7207683969815
 20
49.49818363294882
 30
0.0
 10
-10.64710502471604
 20
49.29847709073259
 30
0.0
 10
-10.57319891804466
 20
49.10011465786837
 30
0.0
  0
SPLINE
  5
B853
330
B835
100
AcDbEntity
  8
0
100
AcDbSpline
210
0.0
220
0.0
230
1.0
 70
     8
 71
     3
 72
    16
 73
    12
 74
     0
 42
0.000000001
 43
0.0000000001
 40
0.403425988212404
 40
0.403425988212404
 40
0.403425988212404
 40
0.403425988212404
 40
0.484111712978503
 40
0.484111712978503
 40
0.564797437744602
 40
0.564797437744602
 40
0.6454831625107011
 40
0.6454831625107011
 40
0.7261688872768001
 40
0.7261688872768001
 40
0.806854612042899
 40
0.806854612042899
 40
0.806854612042899
 40
0.806854612042899
 10
-7.031392278297556
 20
48.91014838865284
 30
0.0
 10
-7.246561068853123
 20
49.03437614780131
 30
0.0
 10
-7.478070758636641
 20
49.12752709802399
 30
0.0
 10
-7.954393465841754
 20
49.2565515772215
 30
0.0
 10
-8.199049537180867
 20
49.29270740577788
 30
0.0
 10
-8.69206459008695
 20
49.32225544583594
 30
0.0
 10
-8.940672159020675
 20
49.31580815270867
 30
0.0
 10
-9.440942909669361
 20
49.27599530892553
 30
0.0
 10
-9.692824723472172
 20
49.24259536676482
 30
0.0
 10
-10.19902177028003
 20
49.16450948535466
 30
0.0
 10
-10.45362973638098
 20
49.11979796340759
 30
0.0
 10
-10.70606015742067
 20
49.07786273605918
 30
0.0
  0
SPLINE
  5
B854
330
B835
100
AcDbEntity
  8
0
100
AcDbSpline
210
0.0
220
0.0
230
1.0
 70
     8
 71
     3
 72
    16
 73
    12
 74
     0
 42
0.000000001
 43
0.0000000001
 40
-0.9069936162369739
 40
-0.9069936162369739
 40
-0.9069936162369739
 40
-0.9069936162369739
 40
-0.7255948929895789
 40
-0.7255948929895789
 40
-0.5441961697421839
 40
-0.5441961697421839
 40
-0.3627974464947888
 40
-0.3627974464947888
 40
-0.1813987232473938
 40
-0.1813987232473938
 40
0.0000000000000013
 40
0.0000000000000013
 40
0.0000000000000013
 40
0.0000000000000013
 10
-10.70606015742067
 20
49.07786273605916
 30
0.0
 10
-10.97026667471875
 20
49.03397119428621
 30
0.0
 10
-11.23214186850086
 20
49.00361198210186
 30
0.0
 10
-11.74003663282656
 20
48.97051839523927
 30
0.0
 10
-11.9860489667996
 20
48.96780006267285
 30
0.0
 10
-12.45102548356211
 20
48.98865827319131
 30
0.0
 10
-12.66997300855209
 20
49.01226582956763
 30
0.0
 10
-13.06995284338487
 20
49.08186200385356
 30
0.0
 10
-13.25092894607554
 20
49.12789886730188
 30
0.0
 10
-13.56536217920616
 20
49.23465654275808
 30
0.0
 10
-13.69864874900025
 20
49.29538909163174
 30
0.0
 10
-13.80553897175592
 20
49.35710219051346
 30
0.0
  0
SPLINE
  5
B855
330
B835
100
AcDbEntity
  8
0
100
AcDbSpline
210
0.0
220
0.0
230
1.0
 70
     8
 71
     3
 72
     8
 73
     4
 74
     0
 42
0.000000001
 43
0.0000000001
 40
0.0
 40
0.0
 40
0.0
 40
0.0
 40
0.0252297526444609
 40
0.0252297526444609
 40
0.0252297526444609
 40
0.0252297526444609
 10
14.13281542024119
 20
51.0297001247931
 30
0.0
 10
14.10886945887316
 20
50.98343757729388
 30
0.0
 10
14.08277126335117
 20
50.93602814073534
 30
0.0
 10
14.05474527301867
 20
50.8874889561298
 30
0.0
  0
SPLINE
  5
B856
330
B835
100
AcDbEntity
  8
0
100
AcDbSpline
210
0.0
220
0.0
230
1.0
 70
     8
 71
     3
 72
     8
 73
     4
 74
     0
 42
0.000000001
 43
0.0000000001
 40
0.7816239974514177
 40
0.7816239974514177
 40
0.7816239974514177
 40
0.7816239974514177
 40
0.8068545796853662
 40
0.8068545796853662
 40
0.8068545796853662
 40
0.8068545796853662
 10
10.68141631191101
 20
45.04470583787161
 30
0.0
 10
10.65338740724667
 20
44.99615869566749
 30
0.0
 10
10.62537399869234
 20
44.94984629492416
 30
0.0
 10
10.59728151430852
 20
44.90597576783506
 30
0.0
  0
ELLIPSE
  5
B857
330
B835
100
AcDbEntity
  8
0
100
AcDbEllipse
 10
9.234471159890603
 20
48.53851501844958
 30
0.0
 11
0.1256039641371283
 21
-4.499590091588684
 31
0.0
210
0.0
220
0.0
230
1.0
 40
0.4835611851232671
 41
6.044065798986693
 42
6.901038558417942
  0
ELLIPSE
  5
B858
330
B835
100
AcDbEntity
  8
0
100
AcDbEllipse
 10
9.234471159890603
 20
48.53851501844958
 30
0.0
 11
0.1256039641371283
 21
-4.499590091588684
 31
0.0
210
0.0
220
0.0
230
1.0
 40
0.4835611851232671
 41
5.588323596500533
 42
6.044065798986691
  0
SPLINE
  5
B859
330
B835
100
AcDbEntity
  8
0
100
AcDbSpline
210
0.0
220
0.0
230
1.0
 70
     8
 71
     3
 72
    12
 73
     8
 74
     0
 42
0.000000001
 43
0.0000000001
 40
0.3362264041805487
 40
0.3362264041805487
 40
0.3362264041805487
 40
0.3362264041805487
 40
0.5004982556602967
 40
0.5004982556602967
 40
0.678447253590467
 40
0.678447253590467
 40
0.8068546120429132
 40
0.8068546120429132
 40
0.8068546120429132
 40
0.8068546120429132
 10
7.779274251112032
 20
49.84195503739115
 30
0.0
 10
8.012113887036061
 20
50.33369733801141
 30
0.0
 10
8.298164684729737
 20
50.80974807872565
 30
0.0
 10
8.972474982579566
 20
51.71098098431965
 30
0.0
 10
9.369080101345764
 20
52.12852677046206
 30
0.0
 10
10.11623428859695
 20
52.67498000098214
 30
0.0
 10
10.44947104705388
 20
52.85046209451535
 30
0.0
 10
10.79107818788849
 20
52.95905301545282
 30
0.0
  0
ELLIPSE
  5
B85A
330
B835
100
AcDbEntity
  8
0
100
AcDbEllipse
 10
10.30553897175601
 20
50.39365888695216
 30
0.0
 11
3.95956130800105
 21
2.141018822035606
 31
0.0
210
0.0
220
0.0
230
1.0
 40
0.483561185123265
 41
5.66533205594124
 42
7.479319288415271
  0
LINE
  5
B85B
330
B835
100
AcDbEntity
  8
0
100
AcDbLine
 10
4.42614504782179
 20
57.45034545817185
 30
0.0
 11
10.54218024425478
 21
53.91925089113819
 31
0.0
  0
ELLIPSE
  5
B85C
330
B835
100
AcDbEntity
  8
0
100
AcDbEllipse
 10
4.426145047821794
 20
52.55136597260549
 30
0.0
 11
2.999999999999896
 21
5.196152422706695
 31
0.0
210
0.0
220
0.0
230
1.0
 40
0.5773502691896133
 41
0.7853981633974368
 42
1.915351184662466
  0
LINE
  5
B85D
330
B835
100
AcDbEntity
  8
0
100
AcDbLine
 10
14.99782988739172
 20
51.34678037025856
 30
0.0
 11
21.08416659901486
 21
47.83283223142437
 31
0.0
  0
LINE
  5
B85E
330
B835
100
AcDbEntity
  8
0
100
AcDbLine
 10
-4.426145047821981
 20
45.37678445412317
 30
0.0
 11
-10.54218024425502
 21
48.90787902115693
 31
0.0
  0
ELLIPSE
  5
B85F
330
B835
100
AcDbEntity
  8
0
100
AcDbEllipse
 10
-4.42614504782199
 20
40.4778049685568
 30
0.0
 11
2.999999999999958
 21
5.196152422706669
 31
0.0
210
0.0
220
0.0
230
1.0
 40
0.5773502691896204
 41
5.497787143782133
 42
7.068583470577026
  0
LINE
  5
B860
330
B835
100
AcDbEntity
  8
0
100
AcDbLine
 10
-14.99782988739176
 20
51.48034954203653
 30
0.0
 11
-21.08416659901487
 21
54.99429768087075
 31
0.0
  0
ELLIPSE
  5
B861
330
B835
100
AcDbEntity
  8
0
100
AcDbEllipse
 10
-4.426145047821988
 20
40.47780496855679
 30
0.0
 11
1.499999999999978
 21
2.598076211353333
 31
0.0
210
0.0
220
0.0
230
0.9999999999999998
 40
0.5773502691896202
 41
5.596852011188476
 42
6.969518603170695
  0
LINE
  5
B862
330
B835
100
AcDbEntity
  8
0
100
AcDbLine
 10
-4.426145047821995
 20
43.15754674716164
 30
0.0
 11
-4.426145047821981
 21
45.37678445412317
 31
0.0
  0
LINE
  5
B863
330
B835
100
AcDbEntity
  8
0
100
AcDbLine
 10
-7.031392278297554
 20
48.91014838865284
 30
0.0
 11
-1.426145047822036
 21
45.67395739126347
 31
0.0
  0
LINE
  5
B864
330
B835
100
AcDbEntity
  8
0
100
AcDbLine
 10
-18.08416659901491
 20
55.29147061801106
 30
0.0
 11
-12.50861785334921
 21
52.07242604882115
 31
0.0
  0
LINE
  5
B865
330
B835
100
AcDbEntity
  8
0
100
AcDbLine
 10
46.87710751897755
 20
62.72439361475763
 30
0.0
 11
21.08416659901486
 21
47.83283223142437
 31
0.0
  0
LINE
  5
B866
330
B835
100
AcDbEntity
  8
0
100
AcDbLine
 10
10.75518920027252
 20
43.99831114190894
 30
0.0
 11
16.84152591189566
 21
40.48436300307478
 31
0.0
  0
ELLIPSE
  5
B867
330
B835
100
AcDbEntity
  8
0
100
AcDbEllipse
 10
21.08416659901486
 20
42.93385274585801
 30
0.0
 11
-2.99999999999959
 21
-5.196152422706874
 31
0.0
210
0.0
220
0.0
230
1.0
 40
0.5773502691896132
 41
3.92699081698699
 42
5.497787143781886
  0
ELLIPSE
  5
B868
330
B835
100
AcDbEntity
  8
0
100
AcDbEllipse
 10
21.08416659901486
 20
42.93385274585801
 30
0.0
 11
1.500000000000107
 21
2.598076211353261
 31
0.0
210
0.0
220
0.0
230
1.0
 40
0.5773502691896131
 41
0.7853981633976757
 42
2.35619449019258
  0
LINE
  5
B869
330
B835
100
AcDbEntity
  8
0
100
AcDbLine
 10
8.668785734941371
 20
40.88546782791623
 30
0.0
 11
8.668785734941428
 21
9.277047183436053
 31
0.0
  0
LINE
  5
B86A
330
B835
100
AcDbEntity
  8
0
100
AcDbLine
 10
8.668785734941367
 20
43.43559203202461
 30
0.0
 11
8.668785734941371
 21
40.88546782791623
 31
0.0
  0
LINE
  5
B86B
330
B835
100
AcDbEntity
  8
0
100
AcDbLine
 10
21.08416659901486
 20
45.38334248864122
 30
0.0
 11
46.87710751897755
 21
60.27490387197445
 31
0.0
  0
LINE
  5
B86C
330
B835
100
AcDbEntity
  8
0
100
AcDbLine
 10
19.59127104655046
 20
78.47787864717682
 30
0.0
 11
46.87710751897755
 21
62.72439361475763
 31
0.0
  0
LINE
  5
B86D
330
B835
100
AcDbEntity
  8
0
100
AcDbLine
 10
-19.59127104655113
 20
24.3492512651183
 30
0.0
 11
-21.71259139011079
 21
25.57399613650988
 31
0.0
  0
LINE
  5
B86E
330
B835
100
AcDbEntity
  8
0
100
AcDbLine
 10
48.99842786253718
 20
66.39862822893238
 30
0.0
 11
51.1197482060968
 21
67.623373100324
 31
0.0
  0
LINE
  5
B86F
330
B835
100
AcDbEntity
  8
0
100
AcDbLine
 10
21.71259139011003
 20
82.15211326135156
 30
0.0
 11
48.99842786253718
 21
66.39862822893238
 31
0.0
  0
LINE
  5
B870
330
B835
100
AcDbEntity
  8
0
100
AcDbLine
 10
46.87710751897755
 20
60.27490387197445
 30
0.0
 11
46.87710751897755
 21
62.72439361475763
 31
0.0
  0
ELLIPSE
  5
B871
330
B835
100
AcDbEntity
  8
0
100
AcDbEllipse
 10
46.8771075189776
 20
65.17388335754076
 30
0.0
 11
2.999999999999588
 21
5.196152422706863
 31
0.0
210
0.0
220
0.0
230
1.0
 40
0.5773502691896125
 41
3.926990816986975
 42
5.49778714378189
  0
ELLIPSE
  5
B872
330
B835
100
AcDbEntity
  8
0
100
AcDbEllipse
 10
46.8771075189776
 20
65.17388335754076
 30
0.0
 11
-1.500000000000087
 21
-2.598076211353247
 31
0.0
210
0.0
220
0.0
230
0.9999999999999998
 40
0.5773502691896116
 41
0.7853981633976517
 42
2.356194490192573
  0
ELLIPSE
  5
B873
330
B835
100
AcDbEntity
  8
0
100
AcDbEllipse
 10
19.59127104655047
 20
80.92736838995996
 30
0.0
 11
-1.500000000000095
 21
-2.59807621135323
 31
0.0
210
0.0
220
0.0
230
1.0
 40
0.5773502691896148
 41
0.7853981633976624
 42
2.356194490192583
  0
LINE
  5
B874
330
B835
100
AcDbEntity
  8
0
100
AcDbLine
 10
-51.11974820609711
 20
40.10273629753761
 30
0.0
 11
-23.83391173367039
 21
24.34925126511828
 31
0.0
  0
ELLIPSE
  5
B875
330
B835
100
AcDbEntity
  8
0
100
AcDbEllipse
 10
-46.87710751897791
 20
42.55222604032079
 30
0.0
 11
-2.999999999999935
 21
-5.196152422706649
 31
0.0
210
0.0
220
0.0
230
1.0
 40
0.5773502691896208
 41
5.497787143782132
 42
6.283185307179591
  0
ELLIPSE
  5
B876
330
B835
100
AcDbEntity
  8
0
100
AcDbEllipse
 10
-19.59127104655115
 20
26.79874100790146
 30
0.0
 11
-2.999999999999958
 21
-5.196152422706672
 31
0.0
210
0.0
220
0.0
230
0.9999999999999998
 40
0.5773502691896213
 41
5.497787143782129
 42
7.06858347057703
  0
LINE
  5
B877
330
B835
100
AcDbEntity
  8
0
100
AcDbLine
 10
-23.83391173367039
 20
24.34925126511828
 30
0.0
 11
-21.71259139011078
 21
25.57399613650986
 31
0.0
  0
ELLIPSE
  5
B878
330
B835
100
AcDbEntity
  8
0
100
AcDbEllipse
 10
-19.59127104655115
 20
26.79874100790146
 30
0.0
 11
-1.499999999999986
 21
-2.598076211353341
 31
0.0
210
0.0
220
0.0
230
0.9999999999999998
 40
0.577350269189622
 41
5.497787143782133
 42
7.06858347057703
  0
LINE
  5
B879
330
B835
100
AcDbEntity
  8
0
100
AcDbLine
 10
-22.59127104655106
 20
21.60258858519487
 30
0.0
 11
-49.87710751897783
 21
37.35607361761422
 31
0.0
  0
LINE
  5
B87A
330
B835
100
AcDbEntity
  8
0
100
AcDbLine
 10
-0.7442197362146043
 20
66.73717756964373
 30
0.0
 11
19.59127104655046
 21
78.47787864717682
 31
0.0
  0
LINE
  5
B87B
330
B835
100
AcDbEntity
  8
0
100
AcDbLine
 10
5.287401107306943
 20
59.17233674734844
 30
0.0
 11
-0.744219736214451
 21
62.65469466500512
 31
0.0
  0
LINE
  5
B87C
330
B835
100
AcDbEntity
  8
0
100
AcDbLine
 10
4.231221095618503
 20
57.33263281862623
 30
0.0
 11
-0.7442197362144487
 21
60.20520492222193
 31
0.0
  0
LINE
  5
B87D
330
B835
100
AcDbEntity
  8
0
100
AcDbLine
 10
-0.7442197362144512
 20
62.65469466500512
 30
0.0
 11
-0.7442197362146043
 21
66.73717756964373
 31
0.0
  0
LINE
  5
B87E
330
B835
100
AcDbEntity
  8
0
100
AcDbLine
 10
0.7442197362141121
 20
40.17243524728989
 30
0.0
 11
0.7442197362141887
 21
36.08995234265127
 31
0.0
  0
LINE
  5
B87F
330
B835
100
AcDbEntity
  8
0
100
AcDbLine
 10
0.7442197362141887
 20
36.08995234265127
 30
0.0
 11
0.7442197362141933
 21
33.64046259986807
 31
0.0
  0
LINE
  5
B880
330
B835
100
AcDbEntity
  8
0
100
AcDbLine
 10
-0.7442197362144488
 20
60.20520492222193
 30
0.0
 11
-0.7442197362144512
 21
62.65469466500512
 31
0.0
  0
ELLIPSE
  5
B881
330
B835
100
AcDbEntity
  8
0
100
AcDbEllipse
 10
4.226740935527137
 20
58.55996431165262
 30
0.0
 11
1.5
 21
0.0000000000000015
 31
0.0
210
0.0
220
0.0
230
1.0
 40
0.5773502691896254
 41
5.497787143782158
 42
7.068583470577053
  0
ELLIPSE
  5
B882
330
B835
100
AcDbEntity
  8
0
100
AcDbEllipse
 10
-4.226740935527373
 20
44.26716560064238
 30
0.0
 11
-1.5
 21
-0.0000000000000015
 31
0.0
210
0.0
220
0.0
230
1.0
 40
0.5773502691896254
 41
5.497787143782156
 42
7.068583470577043
  0
LINE
  5
B883
330
B835
100
AcDbEntity
  8
0
100
AcDbLine
 10
-5.287401107307216
 20
43.6547931649466
 30
0.0
 11
-5.287401107307197
 21
44.87953803633817
 31
0.0
  0
LINE
  5
B884
330
B835
100
AcDbEntity
  8
0
100
AcDbLine
 10
5.287401107306943
 20
59.17233674734844
 30
0.0
 11
5.287401107306946
 21
57.94759187595686
 31
0.0
  0
LINE
  5
B885
330
B835
100
AcDbEntity
  8
0
100
AcDbLine
 10
4.42614504782179
 20
57.45034545817185
 30
0.0
 11
5.28740110730699
 21
57.94759187595686
 31
0.0
  0
LINE
  5
B886
330
B835
100
AcDbEntity
  8
0
100
AcDbLine
 10
-4.426145047821981
 20
45.37678445412317
 30
0.0
 11
-5.287401107307197
 21
44.87953803633817
 31
0.0
  0
LINE
  5
B887
330
B835
100
AcDbEntity
  8
0
100
AcDbLine
 10
-21.71259139011077
 20
54.6314764585661
 30
0.0
 11
-21.08416659901487
 21
54.99429768087075
 31
0.0
  0
ELLIPSE
  5
B888
330
B835
100
AcDbEntity
  8
0
100
AcDbEllipse
 10
-21.08416659901487
 20
50.09531819530439
 30
0.0
 11
2.99999999999995
 21
5.196152422706655
 31
0.0
210
0.0
220
0.0
230
1.0
 40
0.5773502691896201
 41
0.0
 42
0.7853981633974403
  0
LINE
  5
B889
330
B835
100
AcDbEntity
  8
0
100
AcDbLine
 10
-10.79010607850072
 20
10.67567976469492
 30
0.0
 11
-10.79010607850073
 21
26.98111648582138
 31
0.0
  0
LINE
  5
B88A
330
B835
100
AcDbEntity
  8
0
100
AcDbLine
 10
0.7442197362141887
 20
36.08995234265127
 30
0.0
 11
-19.59127104655113
 21
24.3492512651183
 31
0.0
  0
LINE
  5
B88B
330
B835
100
AcDbEntity
  8
0
100
AcDbLine
 10
-5.287401107307184
 20
43.6547931649466
 30
0.0
 11
0.7442197362141123
 21
40.17243524728989
 31
0.0
  0
LINE
  5
B88C
330
B835
100
AcDbEntity
  8
0
100
AcDbLine
 10
-19.59127104655113
 20
21.89976152233509
 30
0.0
 11
0.7442197362141912
 21
33.64046259986807
 31
0.0
  0
LINE
  5
B88D
330
B835
100
AcDbEntity
  8
0
100
AcDbLine
 10
-19.59127104655113
 20
24.3492512651183
 30
0.0
 11
-19.59127104655113
 21
21.89976152233509
 31
0.0
  0
LINE
  5
B88E
330
B835
100
AcDbEntity
  8
0
100
AcDbLine
 10
-10.79010607850095
 20
-110.1143749280103
 30
0.0
 11
-10.79010607850072
 21
10.67567976469492
 31
0.0
  0
LINE
  5
B88F
330
B835
100
AcDbEntity
  8
0
100
AcDbLine
 10
-2.304824704262281
 20
-115.0133544135766
 30
0.0
 11
-10.79010607850095
 21
-110.1143749280103
 31
0.0
  0
LINE
  5
B890
330
B835
100
AcDbEntity
  8
0
100
AcDbLine
 10
-2.304824704262281
 20
-115.0133544135766
 30
0.0
 11
-2.30482470426232
 21
31.8800959713878
 31
0.0
  0
LINE
  5
B891
330
B835
100
AcDbEntity
  8
0
100
AcDbLine
 10
-7.125892516127855
 20
-0.7800367797217423
 30
0.0
 11
-3.625892516127815
 21
-6.842214606212788
 31
0.0
  0
ELLIPSE
  5
B892
330
B835
100
AcDbEntity
  8
0
100
AcDbEllipse
 10
-4.375892516127813
 20
-7.275227308105014
 30
0.0
 11
0.7500000000000062
 21
-1.299038105676648
 31
0.0
210
0.0
220
0.0
230
1.0
 40
0.5773502691896316
 41
4.712388980384693
 42
7.853981633974477
  0
LINE
  5
B893
330
B835
100
AcDbEntity
  8
0
100
AcDbLine
 10
-5.125892516127815
 20
-7.708240009997258
 30
0.0
 11
-8.625892516127869
 21
-1.646062183506185
 31
0.0
  0
ELLIPSE
  5
B894
330
B835
100
AcDbEntity
  8
0
100
AcDbEllipse
 10
-7.875892516127854
 20
-1.21304948161395
 30
0.0
 11
-0.7500000000000008
 21
1.299038105676642
 31
0.0
210
0.0
220
0.0
230
1.0
 40
0.5773502691896315
 41
4.71238898038468
 42
7.853981633974475
  0
LINE
  5
B895
330
B835
100
AcDbEntity
  8
0
100
AcDbLine
 10
-3.625892516127813
 20
-6.842214606212797
 30
0.0
 11
-5.125892516127815
 21
-7.708240009997258
 31
0.0
  0
LINE
  5
B896
330
B835
100
AcDbEntity
  8
0
100
AcDbLine
 10
-7.125892516127859
 20
-0.7800367797217245
 30
0.0
 11
-8.625892516127869
 21
-1.646062183506185
 31
0.0
  0
LINE
  5
B897
330
B835
100
AcDbEntity
  8
0
100
AcDbLine
 10
-7.125892516127844
 20
-17.10996839827626
 30
0.0
 11
-3.625892516127804
 21
-23.17214622476733
 31
0.0
  0
ELLIPSE
  5
B898
330
B835
100
AcDbEntity
  8
0
100
AcDbEllipse
 10
-4.375892516127798
 20
-23.60515892665955
 30
0.0
 11
0.7500000000000174
 21
-1.299038105676642
 31
0.0
210
0.0
220
0.0
230
1.0
 40
0.5773502691896315
 41
4.712388980384666
 42
7.853981633974497
  0
LINE
  5
B899
330
B835
100
AcDbEntity
  8
0
100
AcDbLine
 10
-5.125892516127821
 20
-24.03817162855175
 30
0.0
 11
-8.625892516127848
 21
-17.9759938020607
 31
0.0
  0
ELLIPSE
  5
B89A
330
B835
100
AcDbEntity
  8
0
100
AcDbEllipse
 10
-7.875892516127852
 20
-17.54298110016849
 30
0.0
 11
-0.7500000000000055
 21
1.299038105676639
 31
0.0
210
0.0
220
0.0
230
1.0
 40
0.5773502691896315
 41
4.712388980384687
 42
7.853981633974484
  0
LINE
  5
B89B
330
B835
100
AcDbEntity
  8
0
100
AcDbLine
 10
-7.125892516127847
 20
-33.43990001683081
 30
0.0
 11
-3.625892516127801
 21
-39.50207784332186
 31
0.0
  0
ELLIPSE
  5
B89C
330
B835
100
AcDbEntity
  8
0
100
AcDbEllipse
 10
-4.375892516127802
 20
-39.9350905452141
 30
0.0
 11
0.7500000000000185
 21
-1.299038105676642
 31
0.0
210
0.0
220
0.0
230
1.0
 40
0.5773502691896315
 41
4.712388980384675
 42
7.853981633974497
  0
LINE
  5
B89D
330
B835
100
AcDbEntity
  8
0
100
AcDbLine
 10
-5.125892516127818
 20
-40.36810324710629
 30
0.0
 11
-8.625892516127835
 21
-34.30592542061525
 31
0.0
  0
ELLIPSE
  5
B89E
330
B835
100
AcDbEntity
  8
0
100
AcDbEllipse
 10
-7.875892516127852
 20
-33.87291271872304
 30
0.0
 11
-0.7500000000000047
 21
1.299038105676639
 31
0.0
210
0.0
220
0.0
230
1.0
 40
0.5773502691896316
 41
4.712388980384693
 42
7.853981633974482
  0
LINE
  5
B89F
330
B835
100
AcDbEntity
  8
0
100
AcDbLine
 10
-7.125892516127825
 20
-49.76983163538533
 30
0.0
 11
-3.625892516127797
 21
-55.83200946187637
 31
0.0
  0
ELLIPSE
  5
B8A0
330
B835
100
AcDbEntity
  8
0
100
AcDbEllipse
 10
-4.375892516127787
 20
-56.26502216376862
 30
0.0
 11
0.7500000000000208
 21
-1.29903810567664
 31
0.0
210
0.0
220
0.0
230
1.0
 40
0.5773502691896315
 41
4.712388980384695
 42
7.853981633974508
  0
LINE
  5
B8A1
330
B835
100
AcDbEntity
  8
0
100
AcDbLine
 10
-5.125892516127777
 20
-56.69803486566083
 30
0.0
 11
-8.625892516127837
 21
-50.63585703916977
 31
0.0
  0
ELLIPSE
  5
B8A2
330
B835
100
AcDbEntity
  8
0
100
AcDbEllipse
 10
-7.875892516127832
 20
-50.20284433727756
 30
0.0
 11
-0.7499999999999946
 21
1.299038105676644
 31
0.0
210
0.0
220
0.0
230
1.0
 40
0.5773502691896316
 41
4.712388980384686
 42
7.853981633974465
  0
LINE
  5
B8A3
330
B835
100
AcDbEntity
  8
0
100
AcDbLine
 10
-7.125892516127826
 20
-66.09976325393986
 30
0.0
 11
-3.625892516127793
 21
-72.16194108043089
 31
0.0
  0
ELLIPSE
  5
B8A4
330
B835
100
AcDbEntity
  8
0
100
AcDbEllipse
 10
-4.375892516127783
 20
-72.5949537823231
 30
0.0
 11
0.7500000000000085
 21
-1.299038105676647
 31
0.0
210
0.0
220
0.0
230
1.0
 40
0.5773502691896316
 41
4.71238898038468
 42
7.853981633974481
  0
LINE
  5
B8A5
330
B835
100
AcDbEntity
  8
0
100
AcDbLine
 10
-5.125892516127798
 20
-73.02796648421534
 30
0.0
 11
-8.625892516127835
 21
-66.9657886577243
 31
0.0
  0
ELLIPSE
  5
B8A6
330
B835
100
AcDbEntity
  8
0
100
AcDbEllipse
 10
-7.875892516127835
 20
-66.53277595583212
 30
0.0
 11
-0.749999999999983
 21
1.299038105676652
 31
0.0
210
0.0
220
0.0
230
1.0
 40
0.5773502691896315
 41
4.712388980384698
 42
7.853981633974444
  0
LINE
  5
B8A7
330
B835
100
AcDbEntity
  8
0
100
AcDbLine
 10
-7.125892516127825
 20
-82.42969487249439
 30
0.0
 11
-3.625892516127777
 21
-88.49187269898539
 31
0.0
  0
ELLIPSE
  5
B8A8
330
B835
100
AcDbEntity
  8
0
100
AcDbEllipse
 10
-4.375892516127771
 20
-88.92488540087768
 30
0.0
 11
0.7500000000000392
 21
-1.29903810567663
 31
0.0
210
0.0
220
0.0
230
1.0
 40
0.5773502691896315
 41
4.712388980384695
 42
7.853981633974542
  0
LINE
  5
B8A9
330
B835
100
AcDbEntity
  8
0
100
AcDbLine
 10
-5.12589251612778
 20
-89.35789810276988
 30
0.0
 11
-8.625892516127818
 21
-83.29572027627884
 31
0.0
  0
ELLIPSE
  5
B8AA
330
B835
100
AcDbEntity
  8
0
100
AcDbEllipse
 10
-7.875892516127825
 20
-82.86270757438666
 30
0.0
 11
-0.7499999999999913
 21
1.299038105676647
 31
0.0
210
0.0
220
0.0
230
1.0
 40
0.5773502691896315
 41
4.712388980384702
 42
7.853981633974454
  0
LINE
  5
B8AB
330
B835
100
AcDbEntity
  8
0
100
AcDbLine
 10
-7.125892516127799
 20
-98.75962649104895
 30
0.0
 11
-3.625892516127772
 21
-104.8218043175399
 31
0.0
  0
ELLIPSE
  5
B8AC
330
B835
100
AcDbEntity
  8
0
100
AcDbEllipse
 10
-4.375892516127767
 20
-105.2548170194321
 30
0.0
 11
0.7500000000000138
 21
-1.299038105676644
 31
0.0
210
0.0
220
0.0
230
1.0
 40
0.5773502691896315
 41
4.712388980384704
 42
7.853981633974486
  0
LINE
  5
B8AD
330
B835
100
AcDbEntity
  8
0
100
AcDbLine
 10
-5.125892516127795
 20
-105.6878297213244
 30
0.0
 11
-8.625892516127809
 21
-99.62565189483335
 31
0.0
  0
ELLIPSE
  5
B8AE
330
B835
100
AcDbEntity
  8
0
100
AcDbEllipse
 10
-7.875892516127819
 20
-99.19263919294117
 30
0.0
 11
-0.7499999999999964
 21
1.299038105676644
 31
0.0
210
0.0
220
0.0
230
1.0
 40
0.5773502691896315
 41
4.71238898038467
 42
7.853981633974477
  0
LINE
  5
B8AF
330
B835
100
AcDbEntity
  8
0
100
AcDbLine
 10
-3.625892516127768
 20
-104.8218043175399
 30
0.0
 11
-5.125892516127795
 21
-105.6878297213244
 31
0.0
  0
LINE
  5
B8B0
330
B835
100
AcDbEntity
  8
0
100
AcDbLine
 10
-7.125892516127834
 20
-98.75962649104891
 30
0.0
 11
-8.625892516127809
 21
-99.62565189483335
 31
0.0
  0
LINE
  5
B8B1
330
B835
100
AcDbEntity
  8
0
100
AcDbLine
 10
-3.625892516127761
 20
-88.49187269898543
 30
0.0
 11
-5.12589251612778
 21
-89.35789810276988
 31
0.0
  0
LINE
  5
B8B2
330
B835
100
AcDbEntity
  8
0
100
AcDbLine
 10
-7.125892516127835
 20
-82.42969487249441
 30
0.0
 11
-8.625892516127818
 21
-83.29572027627884
 31
0.0
  0
LINE
  5
B8B3
330
B835
100
AcDbEntity
  8
0
100
AcDbLine
 10
-3.625892516127791
 20
-72.16194108043089
 30
0.0
 11
-5.125892516127798
 21
-73.02796648421534
 31
0.0
  0
LINE
  5
B8B4
330
B835
100
AcDbEntity
  8
0
100
AcDbLine
 10
-7.125892516127862
 20
-66.09976325393986
 30
0.0
 11
-8.625892516127835
 21
-66.9657886577243
 31
0.0
  0
LINE
  5
B8B5
330
B835
100
AcDbEntity
  8
0
100
AcDbLine
 10
-3.625892516127793
 20
-55.83200946187637
 30
0.0
 11
-5.125892516127777
 21
-56.69803486566083
 31
0.0
  0
LINE
  5
B8B6
330
B835
100
AcDbEntity
  8
0
100
AcDbLine
 10
-7.125892516127843
 20
-49.76983163538533
 30
0.0
 11
-8.625892516127837
 21
-50.63585703916977
 31
0.0
  0
LINE
  5
B8B7
330
B835
100
AcDbEntity
  8
0
100
AcDbLine
 10
-3.625892516127817
 20
-39.50207784332182
 30
0.0
 11
-5.125892516127818
 21
-40.36810324710629
 31
0.0
  0
LINE
  5
B8B8
330
B835
100
AcDbEntity
  8
0
100
AcDbLine
 10
-7.125892516127861
 20
-33.43990001683082
 30
0.0
 11
-8.625892516127835
 21
-34.30592542061525
 31
0.0
  0
LINE
  5
B8B9
330
B835
100
AcDbEntity
  8
0
100
AcDbLine
 10
-3.625892516127824
 20
-23.1721462247673
 30
0.0
 11
-5.125892516127821
 21
-24.03817162855175
 31
0.0
  0
LINE
  5
B8BA
330
B835
100
AcDbEntity
  8
0
100
AcDbLine
 10
-7.12589251612786
 20
-17.10996839827626
 30
0.0
 11
-8.625892516127848
 21
-17.9759938020607
 31
0.0
  0
LINE
  5
B8BB
330
B835
100
AcDbEntity
  8
0
100
AcDbLine
 10
-13.72775000617592
 20
25.2850669733948
 30
0.0
 11
-10.79010607850072
 21
10.67567976469492
 31
0.0
  0
LINE
  5
B8BC
330
B835
100
AcDbEntity
  8
0
100
AcDbLine
 10
0.9611115194853425
 20
50.68870528073611
 30
0.0
 11
-0.0155929438861741
 21
52.32639149317428
 31
0.0
  0
ELLIPSE
  5
B8BD
330
B835
100
AcDbEntity
  8
0
100
AcDbEllipse
 10
1.937815982856919
 20
49.05101906829842
 30
0.0
 11
3.000000000000019
 21
0.000000000000171
 31
0.0
210
0.0
220
0.0
230
1.0
 40
0.5773502691895162
 41
4.677178363873938
 42
8.185594191853407
  0
LINE
  5
B8BE
330
B835
100
AcDbEntity
  8
0
100
AcDbLine
 10
1.832205958813144
 20
47.3200418372884
 30
0.0
 11
1.726595934769372
 21
45.58906460627874
 31
0.0
  0
ELLIPSE
  5
B8BF
330
B835
100
AcDbEntity
  8
0
100
AcDbEllipse
 10
1.937815982856919
 20
49.05101906829842
 30
0.0
 11
6.000000000000047
 21
0.000000000000021
 31
0.0
210
0.0
220
0.0
230
1.0
 40
0.5773502691896839
 41
4.677178363873969
 42
8.185594191853429
  0
LINE
  5
B8C0
330
B835
100
AcDbEntity
  8
0
100
AcDbLine
 10
-0.0155929438861741
 20
52.32639149317428
 30
0.0
 11
-0.9611115194854896
 21
52.13842463155885
 31
0.0
  0
LINE
  5
B8C1
330
B835
100
AcDbEntity
  8
0
100
AcDbLine
 10
0.0155929438860384
 20
50.5007384191207
 30
0.0
 11
-0.9611115194854896
 21
52.13842463155885
 31
0.0
  0
LINE
  5
B8C2
330
B835
100
AcDbEntity
  8
0
100
AcDbLine
 10
0.0155929438860384
 20
50.5007384191207
 30
0.0
 11
0.9611115194853425
 21
50.68870528073611
 31
0.0
  0
LINE
  5
B8C3
330
B835
100
AcDbEntity
  8
0
100
AcDbLine
 10
-1.726595934769441
 20
52.33908582044993
 30
0.0
 11
-1.726595934769441
 21
57.23806530601629
 31
0.0
  0
LINE
  5
B8C4
330
B835
100
AcDbEntity
  8
0
100
AcDbLine
 10
-1.832205958813224
 20
55.50708807500665
 30
0.0
 11
-1.726595934769441
 21
57.23806530601629
 31
0.0
  0
LINE
  5
B8C5
330
B835
100
AcDbEntity
  8
0
100
AcDbLine
 10
-1.832205958813224
 20
52.04513361298744
 30
0.0
 11
-1.832205958813224
 21
55.50708807500665
 31
0.0
  0
LINE
  5
B8C6
330
B835
100
AcDbEntity
  8
0
100
AcDbLine
 10
1.726595934769366
 20
40.69008512071244
 30
0.0
 11
1.726595934769372
 21
45.58906460627874
 31
0.0
  0
ELLIPSE
  5
B8C7
330
B835
100
AcDbEntity
  8
0
100
AcDbEllipse
 10
-1.937815982856995
 20
53.77611084399709
 30
0.0
 11
-2.999999999999997
 21
0.0000000000000257
 31
0.0
210
0.0
220
0.0
230
1.0
 40
0.5773502691896439
 41
4.677178363873977
 42
8.185594191853422
  0
ELLIPSE
  5
B8C8
330
B835
100
AcDbEntity
  8
0
100
AcDbEllipse
 10
-1.937815982856995
 20
53.77611084399706
 30
0.0
 11
-6.000000000000015
 21
-0.0000000000000011
 31
0.0
210
0.0
220
0.0
230
1.0
 40
0.577350269189616
 41
4.677178363873968
 42
8.18559419185342
  0
ELLIPSE
  5
B8C9
330
B835
100
AcDbEntity
  8
0
100
AcDbEllipse
 10
36.44728249647557
 20
113.2451195596605
 30
0.0
 11
1.249999999999918
 21
-2.165063509461143
 31
0.0
210
0.0
220
0.0
230
1.0
 40
0.5773502691896369
 41
0.0
 42
6.283185307179586
  0
ELLIPSE
  5
B8CA
330
B835
100
AcDbEntity
  8
0
100
AcDbEllipse
 10
38.56860284003516
 20
114.4698644310522
 30
0.0
 11
1.250000000000177
 21
-2.165063509460994
 31
0.0
210
0.0
220
0.0
230
1.0
 40
0.5773502691896376
 41
4.154790153684974
 42
5.269987807084152
  0
ELLIPSE
  5
B8CB
330
B835
100
AcDbEntity
  8
0
100
AcDbEllipse
 10
43.3415736130446
 20
99.05849146604142
 30
0.0
 11
1.249999999999918
 21
-2.165063509461143
 31
0.0
210
0.0
220
0.0
230
0.9999999999999998
 40
0.5773502691896369
 41
0.0
 42
6.283185307179586
  0
ELLIPSE
  5
B8CC
330
B835
100
AcDbEntity
  8
0
100
AcDbEllipse
 10
45.46289395660418
 20
100.283236337433
 30
0.0
 11
1.250000000000176
 21
-2.165063509460995
 31
0.0
210
0.0
220
0.0
230
1.0
 40
0.5773502691896374
 41
4.154790153684974
 42
5.269987807084165
  0
ELLIPSE
  5
B8CD
330
B835
100
AcDbEntity
  8
0
100
AcDbEllipse
 10
28.07655242078893
 20
127.4676735028405
 30
0.0
 11
2.124999999999861
 21
-3.680607966083943
 31
0.0
210
0.0
220
0.0
230
1.0
 40
0.577350269189637
 41
0.0
 42
6.283185307179586
  0
ELLIPSE
  5
B8CE
330
B835
100
AcDbEntity
  8
0
100
AcDbEllipse
 10
30.19787276434853
 20
128.6924183742321
 30
0.0
 11
2.125000000000303
 21
-3.680607966083689
 31
0.0
210
0.0
220
0.0
230
1.0
 40
0.5773502691896377
 41
3.664191975904904
 42
5.760585984863703
  0
ELLIPSE
  5
B8CF
330
B835
100
AcDbEntity
  8
0
100
AcDbEllipse
 10
-36.44728249647615
 20
73.68115818819058
 30
0.0
 11
1.250000000000146
 21
-2.165063509461012
 31
0.0
210
0.0
220
0.0
230
1.0
 40
0.577350269189633
 41
4.154790153685002
 42
5.26998780708412
  0
ELLIPSE
  5
B8D0
330
B835
100
AcDbEntity
  8
0
100
AcDbEllipse
 10
-38.56860284003579
 20
72.45641331679898
 30
0.0
 11
1.249999999999883
 21
-2.165063509461164
 31
0.0
210
0.0
220
0.0
230
1.0
 40
0.5773502691896325
 41
0.0
 42
6.283185307179586
  0
ELLIPSE
  5
B8D1
330
B835
100
AcDbEntity
  8
0
100
AcDbEllipse
 10
-43.34157361304505
 20
67.45537175861662
 30
0.0
 11
1.250000000000146
 21
-2.165063509461012
 31
0.0
210
0.0
220
0.0
230
1.0
 40
0.577350269189633
 41
4.154790153685013
 42
5.269987807084119
  0
ELLIPSE
  5
B8D2
330
B835
100
AcDbEntity
  8
0
100
AcDbEllipse
 10
-45.4628939566047
 20
66.23062688722502
 30
0.0
 11
1.249999999999883
 21
-2.165063509461164
 31
0.0
210
0.0
220
0.0
230
1.0
 40
0.5773502691896325
 41
0.0
 42
6.283185307179586
  0
ELLIPSE
  5
B8D3
330
B835
100
AcDbEntity
  8
0
100
AcDbEllipse
 10
-28.07655242078965
 20
78.23802560634826
 30
0.0
 11
2.125000000000246
 21
-3.680607966083722
 31
0.0
210
0.0
220
0.0
230
1.0
 40
0.5773502691896319
 41
3.664191975904923
 42
5.760585984863702
  0
ELLIPSE
  5
B8D4
330
B835
100
AcDbEntity
  8
0
100
AcDbEllipse
 10
-30.19787276434926
 20
77.01328073495665
 30
0.0
 11
2.124999999999802
 21
-3.680607966083979
 31
0.0
210
0.0
220
0.0
230
1.0
 40
0.5773502691896326
 41
0.0
 42
6.283185307179586
  0
LINE
  5
B8D5
330
B835
100
AcDbEntity
  8
0
100
AcDbLine
 10
51.11974820609667
 20
119.8791542796985
 30
0.0
 11
47.58421430016383
 21
126.0028786366564
 31
0.0
  0
LINE
  5
B8D6
330
B835
100
AcDbEntity
  8
0
100
AcDbLine
 10
47.58421430016383
 20
126.0028786366564
 30
0.0
 11
45.46289395660422
 21
124.7781337652648
 31
0.0
  0
LINE
  5
B8D7
330
B835
100
AcDbEntity
  8
0
100
AcDbLine
 10
45.46289395660422
 20
124.7781337652648
 30
0.0
 11
48.99842786253701
 21
118.6544094083069
 31
0.0
  0
LINE
  5
B8D8
330
B835
100
AcDbEntity
  8
0
100
AcDbLine
 10
48.99842786253701
 20
118.6544094083069
 30
0.0
 11
51.11974820609667
 21
119.8791542796985
 31
0.0
  0
LINE
  5
B8D9
330
B835
100
AcDbEntity
  8
0
100
AcDbLine
 10
21.71259139010976
 20
134.407894440726
 30
0.0
 11
25.24812529604273
 21
136.4491358930454
 31
0.0
  0
LINE
  5
B8DA
330
B835
100
AcDbEntity
  8
0
100
AcDbLine
 10
-27.36944563960314
 20
82.7287568014508
 30
0.0
 11
-23.83391173367037
 21
76.60503244449287
 31
0.0
  0
LINE
  5
B8DB
330
B835
100
AcDbEntity
  8
0
100
AcDbLine
 10
-23.83391173367037
 20
76.60503244449287
 30
0.0
 11
-21.71259139011077
 21
77.82977731588447
 31
0.0
  0
LINE
  5
B8DC
330
B835
100
AcDbEntity
  8
0
100
AcDbLine
 10
-21.71259139011077
 20
77.82977731588447
 30
0.0
 11
-25.2481252960435
 21
83.95350167284236
 31
0.0
  0
LINE
  5
B8DD
330
B835
100
AcDbEntity
  8
0
100
AcDbLine
 10
-25.2481252960435
 20
83.95350167284236
 30
0.0
 11
-27.36944563960314
 21
82.7287568014508
 31
0.0
  0
LINE
  5
B8DE
330
B835
100
AcDbEntity
  8
0
100
AcDbLine
 10
-47.58421430016435
 20
94.39975892923161
 30
0.0
 11
-45.46289395660472
 21
95.62450380062319
 31
0.0
  0
LINE
  5
B8DF
330
B835
100
AcDbEntity
  8
0
100
AcDbLine
 10
-51.11974820609716
 20
92.35851747691226
 30
0.0
 11
-47.58421430016435
 21
94.39975892923161
 31
0.0
  0
LINE
  5
B8E0
330
B835
100
AcDbEntity
  8
0
100
AcDbLine
 10
25.24812529604273
 20
136.4491358930454
 30
0.0
 11
27.36944563960233
 21
137.673880764437
 31
0.0
  0
LINE
  5
B8E1
330
B835
100
AcDbEntity
  8
0
100
AcDbLine
 10
48.99842786253701
 20
118.6544094083069
 30
0.0
 11
48.99842786253718
 21
66.39862822893238
 31
0.0
  0
LINE
  5
B8E2
330
B835
100
AcDbEntity
  8
0
100
AcDbLine
 10
51.1197482060968
 20
67.623373100324
 30
0.0
 11
51.11974820609667
 21
119.8791542796985
 31
0.0
  0
LINE
  5
B8E3
330
B835
100
AcDbEntity
  8
0
100
AcDbLine
 10
45.46289395660422
 20
124.7781337652648
 30
0.0
 11
25.24812529604273
 21
136.4491358930454
 31
0.0
  0
LINE
  5
B8E4
330
B835
100
AcDbEntity
  8
0
100
AcDbLine
 10
21.71259139010976
 20
134.407894440726
 30
0.0
 11
21.71259139011003
 21
82.15211326135156
 31
0.0
  0
LINE
  5
B8E5
330
B835
100
AcDbEntity
  8
0
100
AcDbLine
 10
-45.46289395660472
 20
95.62450380062319
 30
0.0
 11
-25.2481252960435
 21
83.95350167284236
 31
0.0
  0
LINE
  5
B8E6
330
B835
100
AcDbEntity
  8
0
100
AcDbLine
 10
-47.58421430016435
 20
94.39975892923161
 30
0.0
 11
-27.36944563960314
 21
82.7287568014508
 31
0.0
  0
LINE
  5
B8E7
330
B835
100
AcDbEntity
  8
0
100
AcDbLine
 10
-21.71259139011077
 20
77.82977731588447
 30
0.0
 11
-21.71259139011078
 21
25.57399613650986
 31
0.0
  0
LINE
  5
B8E8
330
B835
100
AcDbEntity
  8
0
100
AcDbLine
 10
-51.11974820609711
 20
40.10273629753761
 30
0.0
 11
-51.11974820609716
 21
92.35851747691226
 31
0.0
  0
LINE
  5
B8E9
330
B835
100
AcDbEntity
  8
0
100
AcDbLine
 10
47.58421430016383
 20
126.0028786366564
 30
0.0
 11
27.36944563960233
 21
137.673880764437
 31
0.0
  0
LINE
  5
B8EA
330
B835
100
AcDbEntity
  8
0
100
AcDbLine
 10
-23.83391173367037
 20
76.60503244449287
 30
0.0
 11
-23.83391173367039
 21
24.34925126511828
 31
0.0
  0
LINE
  5
B8EB
330
B835
100
AcDbEntity
  8
0
100
AcDbLine
 10
0.9611115194853425
 20
50.68870528073611
 30
0.0
 11
0.9611115194853493
 21
41.31686403503752
 31
0.0
  0
LINE
  5
B8EC
330
B835
100
AcDbEntity
  8
0
100
AcDbLine
 10
0.0155929438860384
 20
50.5007384191207
 30
0.0
 11
0.0155929438860445
 21
42.02658911521798
 31
0.0
  0
LINE
  5
B8ED
330
B835
100
AcDbEntity
  8
0
100
AcDbLine
 10
-7.937815982856984
 20
49.24374494012129
 30
0.0
 11
-7.937815982856987
 21
53.77611084399706
 31
0.0
  0
LINE
  5
B8EE
330
B835
100
AcDbEntity
  8
0
100
AcDbLine
 10
7.937815982857112
 20
-112.5638646707936
 30
0.0
 11
7.937815982857051
 21
49.05101906829841
 31
0.0
  0
LINE
  5
B8EF
330
B835
100
AcDbEntity
  8
0
100
AcDbLine
 10
-1.726595934769441
 20
52.33908582044993
 30
0.0
 11
-1.744376076149237
 21
52.04766443151243
 31
0.0
  0
SPLINE
  5
B8F0
330
B835
100
AcDbEntity
  8
0
100
AcDbSpline
210
0.0
220
0.0
230
1.0
 70
     8
 71
     3
 72
    14
 73
    10
 74
     0
 42
0.000000001
 43
0.0000000001
 40
-0.3483661581039918
 40
-0.3483661581039918
 40
-0.3483661581039918
 40
-0.3483661581039918
 40
0.4440817313539139
 40
0.4440817313539139
 40
0.4440817313539139
 40
1.56916514439576
 40
1.56916514439576
 40
1.56916514439576
 40
2.356194490192132
 40
2.356194490192132
 40
2.356194490192132
 40
2.356194490192132
 10
1.720898725392245
 20
41.90859267727033
 30
0.0
 10
1.592402717395021
 20
41.62272892167456
 30
0.0
 10
1.363880136819801
 20
41.39850143346984
 30
0.0
 10
1.095063262947706
 20
41.33563991065546
 30
0.0
 10
0.7134086330815714
 20
41.24639182560424
 30
0.0
 10
0.2962126343332004
 20
41.50038628948404
 30
0.0
 10
0.0628833958360662
 20
41.9324897972784
 30
0.0
 10
-0.1003373536664736
 20
42.23475906648419
 30
0.0
 10
-0.1835043607028269
 20
42.60599132637366
 30
0.0
 10
-0.1835043607028716
 20
42.92729471133995
 30
0.0
  0
LINE
  5
B8F1
330
B835
100
AcDbEntity
  8
0
100
AcDbLine
 10
-2.105420591967694
 20
41.81767585785924
 30
0.0
 11
-0.1835043607027173
 21
42.92729471134001
 31
0.0
  0
SPLINE
  5
B8F2
330
B835
100
AcDbEntity
  8
0
100
AcDbSpline
210
0.0
220
0.0
230
1.0
 70
     8
 71
     3
 72
     8
 73
     4
 74
     0
 42
0.000000001
 43
0.0000000001
 40
1.379729697021987
 40
1.379729697021987
 40
1.379729697021987
 40
1.379729697021987
 40
2.356194490192187
 40
2.356194490192187
 40
2.356194490192187
 40
2.356194490192187
 10
0.7436418130472129
 20
39.74259320206135
 30
0.0
 10
1.334088720225925
 20
39.89714178733965
 30
0.0
 10
1.72659593476883
 20
40.29144503820242
 30
0.0
 10
1.726595934768945
 20
40.6900851207123
 30
0.0
  0
SPLINE
  5
B8F3
330
B835
100
AcDbEntity
  8
0
100
AcDbSpline
210
0.0
220
0.0
230
1.0
 70
     8
 71
     3
 72
     8
 73
     4
 74
     0
 42
0.000000001
 43
0.0000000001
 40
2.120201833790547
 40
2.120201833790547
 40
2.120201833790547
 40
2.120201833790547
 40
2.356194490192299
 40
2.356194490192299
 40
2.356194490192299
 40
2.356194490192299
 10
-1.660564039123174
 20
52.05301960321091
 30
0.0
 10
-1.703669768224586
 20
52.14699246876371
 30
0.0
 10
-1.726595934769517
 20
52.24274222191188
 30
0.0
 10
-1.726595934769525
 20
52.33908582044993
 30
0.0
  0
ELLIPSE
  5
B8F4
330
B835
100
AcDbEntity
  8
0
100
AcDbEllipse
 10
1.937815982856981
 20
-112.5638646707936
 30
0.0
 11
6.000000000000021
 21
0.0000000000003594
 31
0.0
210
0.0
220
0.0
230
1.0
 40
0.5773502691896254
 41
3.926990816987007
 42
6.283185307179208
  0
ENDBLK
  5
B837
330
B835
100
AcDbEntity
  8
0
100
AcDbBlockEnd
  0
ENDSEC
  0
SECTION
  2
ENTITIES
  0
INSERT
  5
B8F5
330
1F
100
AcDbEntity
  8
0
100
AcDbBlockReference
  2
PBWS100-Front
 10
0.0
 20
0.0
 30
0.0
  0
INSERT
  5
B8F6
330
1F
100
AcDbEntity
  8
0
100
AcDbBlockReference
  2
PBWS100-Left
 10
151.3010978852955
 20
0.0
 30
0.0
  0
INSERT
  5
B8F7
330
1F
100
AcDbEntity
  8
0
100
AcDbBlockReference
  2
PBWS100-Right
 10
-153.2755824361809
 20
0.0
 30
0.0
  0
INSERT
  5
B8F8
330
1F
100
AcDbEntity
  8
0
100
AcDbBlockReference
  2
PBWS100-Top
 10
0.0
 20
-330.9310989424796
 30
0.0
  0
INSERT
  5
B8F9
330
1F
100
AcDbEntity
  8
0
100
AcDbBlockReference
  2
PBWS100-Bottom
 10
0.0
 20
204.9940989424797
 30
0.0
  0
INSERT
  5
B8FA
330
1F
100
AcDbEntity
  8
0
100
AcDbBlockReference
  2
PBWS100-ISO
 10
150.4078471489141
 20
-416.5919807644374
 30
0.0
  0
MTEXT
  5
B8FB
330
1F
100
AcDbEntity
  8
0
100
AcDbMText
 10
0.0
 20
-465.8991999998036
 30
0.0
 40
16.71255686970988
 41
0.0
 71
     5
 72
     5
  1
PBWS100Z
 73
     1
 44
1.0
1001
ACAD
1000
MTEXTBEGIN
1070
    73
1070
     1
1070
    44
1040
1.0
1070
    74
1070
     0
1000
MTEXTEND
  0
ENDSEC
  0
SECTION
  2
OBJECTS
  0
DICTIONARY
  5
C
330
0
100
AcDbDictionary
281
     1
  3
ACAD_CIP_PREVIOUS_PRODUCT_INFO
350
216
  3
ACAD_COLOR
350
6B
  3
ACAD_DETAILVIEWSTYLE
350
21B
  3
ACAD_GROUP
350
D
  3
ACAD_LAYOUT
350
1A
  3
ACAD_MATERIAL
350
6A
  3
ACAD_MLEADERSTYLE
350
12D
  3
ACAD_MLINESTYLE
350
17
  3
ACAD_PLOTSETTINGS
350
19
  3
ACAD_PLOTSTYLENAME
350
E
  3
ACAD_SCALELIST
350
10C
  3
ACAD_SECTIONVIEWSTYLE
350
219
  3
ACAD_TABLESTYLE
350
7E
  3
ACAD_VISUALSTYLE
350
EF
  3
ACDB_RECOMPOSE_DATA
350
B9FC
  3
AcDbVariableDictionary
350
5E
  3
DWGPROPS
350
B9FD
  0
DICTIONARY
  5
B94C
330
8
100
AcDbDictionary
280
     1
281
     1
  0
DICTIONARY
  5
1FF
330
2
100
AcDbDictionary
280
     1
281
     1
  3
ACAD_LAYERSTATES
360
200
  0
DICTIONARY
  5
13C
330
10
100
AcDbDictionary
280
     1
281
     1
  0
DICTIONARY
  5
1CE
330
1F
100
AcDbDictionary
280
     1
281
     1
  3
ACAD_LAYOUTSELFREF
360
B954
  0
DICTIONARY
  5
B8FF
330
D2
100
AcDbDictionary
280
     1
281
     1
  3
ACAD_LAYOUTSELFREF
360
B95D
  0
DICTIONARY
  5
B901
330
D6
100
AcDbDictionary
280
     1
281
     1
  3
ACAD_LAYOUTSELFREF
360
B960
  0
XRECORD
  5
216
102
{ACAD_REACTORS
330
C
102
}
330
C
100
AcDbXrecord
280
     1
300
ACD
300
2021
300

  0
DICTIONARY
  5
6B
102
{ACAD_REACTORS
330
C
102
}
330
C
100
AcDbDictionary
281
     1
  0
DICTIONARY
  5
21B
102
{ACAD_REACTORS
330
C
102
}
330
C
100
AcDbDictionary
281
     1
  3
Metric50
350
21C
  0
DICTIONARY
  5
D
102
{ACAD_REACTORS
330
C
102
}
330
C
100
AcDbDictionary
281
     1
  0
DICTIONARY
  5
1A
102
{ACAD_REACTORS
330
C
102
}
330
C
100
AcDbDictionary
281
     1
  3
Layout1
350
D3
  3
Layout2
350
D7
  3
Model
350
22
  0
DICTIONARY
  5
6A
102
{ACAD_REACTORS
330
C
102
}
330
C
100
AcDbDictionary
281
     1
  3
ByBlock
350
ED
  3
ByLayer
350
EC
  3
Global
350
EE
  0
DICTIONARY
  5
12D
102
{ACAD_REACTORS
330
C
102
}
330
C
100
AcDbDictionary
281
     1
  3
Standard
350
12E
  0
DICTIONARY
  5
17
102
{ACAD_REACTORS
330
C
102
}
330
C
100
AcDbDictionary
281
     1
  3
Standard
350
18
  0
DICTIONARY
  5
19
102
{ACAD_REACTORS
330
C
102
}
330
C
100
AcDbDictionary
281
     1
  0
ACDBDICTIONARYWDFLT
  5
E
102
{ACAD_REACTORS
330
C
102
}
330
C
100
AcDbDictionary
281
     1
  3
Normal
350
F
100
AcDbDictionaryWithDefault
340
F
  0
DICTIONARY
  5
10C
102
{ACAD_REACTORS
330
C
102
}
330
C
100
AcDbDictionary
281
     1
  3
A0
350
10D
  3
A1
350
1BE
  3
A2
350
1BF
  3
A3
350
1C0
  3
A4
350
1C1
  3
A5
350
1C2
  3
A6
350
1C3
  3
A7
350
1C4
  3
A8
350
1C5
  3
A9
350
1C6
  3
B0
350
1C7
  3
B1
350
1C8
  3
B2
350
1C9
  3
B3
350
1CA
  3
B4
350
1CB
  3
B5
350
1CC
  3
B6
350
1CD
  0
DICTIONARY
  5
219
102
{ACAD_REACTORS
330
C
102
}
330
C
100
AcDbDictionary
281
     1
  3
Metric50
350
21A
  0
DICTIONARY
  5
7E
102
{ACAD_REACTORS
330
C
102
}
330
C
100
AcDbDictionary
281
     1
  3
Standard
350
7F
  0
DICTIONARY
  5
EF
102
{ACAD_REACTORS
330
C
102
}
330
C
100
AcDbDictionary
281
     1
  3
2dWireframe
350
F5
  3
Basic
350
F4
  3
Brighten
350
FB
  3
ColorChange
350
FF
  3
Conceptual
350
F8
  3
Dim
350
FA
  3
EdgeColorOff
350
1E6
  3
Facepattern
350
FE
  3
Flat
350
F0
  3
FlatWithEdges
350
F1
  3
Gouraud
350
F2
  3
GouraudWithEdges
350
F3
  3
Hidden
350
F7
  3
JitterOff
350
1E4
  3
Linepattern
350
FD
  3
OverhangOff
350
1E5
  3
Realistic
350
F9
  3
Shaded
350
1F3
  3
Shaded with edges
350
1F2
  3
Shades of Gray
350
1EF
  3
Sketchy
350
1F0
  3
Thicken
350
FC
  3
Wireframe
350
F6
  3
X-Ray
350
1F1
  0
XRECORD
  5
B9FC
102
{ACAD_REACTORS
330
C
102
}
330
C
100
AcDbXrecord
280
     1
 90
        1
330
7F
  0
DICTIONARY
  5
5E
102
{ACAD_REACTORS
330
C
102
}
330
C
100
AcDbDictionary
281
     1
  3
CANNOSCALE
350
146
  3
CENTEREXE
350
259
  3
CENTERLTYPEFILE
350
25A
  3
CMLEADERSTYLE
350
145
  3
CTABLESTYLE
350
84
  3
CVIEWDETAILSTYLE
350
227
  3
CVIEWSECTIONSTYLE
350
228
  3
DIMASSOC
350
5F
  3
HIDETEXT
350
63
  3
INDEXCTL
350
B9A9
  3
LAYEREVAL
350
1AE
  3
LAYERNOTIFY
350
1AF
  3
LIGHTINGUNITS
350
B9A7
  3
MSLTSCALE
350
B9A6
  3
PSOLHEIGHT
350
B9F9
  3
PSOLWIDTH
350
B9F8
  3
SORTENTS
350
B9A8
  3
XCLIPFRAME
350
B9FA
  0
XRECORD
  5
B9FD
102
{ACAD_REACTORS
330
C
102
}
330
C
100
AcDbXrecord
280
     1
  1
DWGPROPS COOKIE
  2

  3

  4

  6

  7

  8
tronnguyen
  9

300
=
301
=
302
=
303
=
304
=
305
=
306
=
307
=
308
=
309
=
 40
0.0048032407407407
 41
2460286.6225
 42
2460286.637789352
  1

 90
        0
  0
DICTIONARY
  5
200
102
{ACAD_REACTORS
330
1FF
102
}
330
1FF
100
AcDbDictionary
281
     1
  0
XRECORD
  5
B954
102
{ACAD_REACTORS
330
1CE
102
}
330
1CE
100
AcDbXrecord
280
     1
340
1F
  0
XRECORD
  5
B95D
102
{ACAD_REACTORS
330
B8FF
102
}
330
B8FF
100
AcDbXrecord
280
     1
340
D2
  0
XRECORD
  5
B960
102
{ACAD_REACTORS
330
B901
102
}
330
B901
100
AcDbXrecord
280
     1
340
D6
  0
ACDBDETAILVIEWSTYLE
  5
21C
102
{ACAD_XDICTIONARY
360
BA3C
102
}
102
{ACAD_REACTORS
330
21B
102
}
330
21B
100
AcDbModelDocViewStyle
 70
     0
  3
Metric50
290
     0
100
AcDbDetailViewStyle
 70
     0
 71
     0
 90
        3
 71
     1
340
11
 40
5.0
340
0
 40
5.0
300

 40
0.0
280
     1
 71
     2
340
16
 90
       25
 71
     3
340
11
 40
5.0
 90
        0
 40
15.0
 90
        1
300
%<\AcVar ViewDetailId>% (%<\AcVar ViewScale \f "%sn">%)
 71
     4
340
16
 90
       25
340
16
 90
       25
280
     0
  0
LAYOUT
  5
D3
102
{ACAD_XDICTIONARY
360
BA01
102
}
102
{ACAD_REACTORS
330
1A
102
}
330
1A
100
AcDbPlotSettings
  1

  2
C:\Documents and Settings\basas\Application Data\Autodesk\AutoCAD 2005\R16.1\enu\plotters\Default Windows System Printer.pc3
  4

  6

 40
0.0
 41
0.0
 42
0.0
 43
0.0
 44
0.0
 45
0.0
 46
0.0
 47
0.0
 48
0.0
 49
0.0
140
0.0
141
0.0
142
1.0
143
1.0
 70
   688
 72
     0
 73
     0
 74
     5
  7

 75
    16
147
1.0
148
0.0
149
0.0
100
AcDbLayout
  1
Layout1
 70
     1
 71
     1
 10
0.0
 20
0.0
 11
12.0
 21
9.0
 12
0.0
 22
0.0
 32
0.0
 14
0.0
 24
0.0
 34
0.0
 15
0.0
 25
0.0
 35
0.0
146
0.0
 13
0.0
 23
0.0
 33
0.0
 16
1.0
 26
0.0
 36
0.0
 17
0.0
 27
1.0
 37
0.0
 76
     0
330
D2
  0
LAYOUT
  5
D7
102
{ACAD_XDICTIONARY
360
BA03
102
}
102
{ACAD_REACTORS
330
1A
102
}
330
1A
100
AcDbPlotSettings
  1

  2
C:\Documents and Settings\basas\Application Data\Autodesk\AutoCAD 2005\R16.1\enu\plotters\Default Windows System Printer.pc3
  4

  6

 40
0.0
 41
0.0
 42
0.0
 43
0.0
 44
0.0
 45
0.0
 46
0.0
 47
0.0
 48
0.0
 49
0.0
140
0.0
141
0.0
142
1.0
143
1.0
 70
   688
 72
     0
 73
     0
 74
     5
  7

 75
    16
147
1.0
148
0.0
149
0.0
100
AcDbLayout
  1
Layout2
 70
     1
 71
     2
 10
0.0
 20
0.0
 11
12.0
 21
9.0
 12
0.0
 22
0.0
 32
0.0
 14
0.0
 24
0.0
 34
0.0
 15
0.0
 25
0.0
 35
0.0
146
0.0
 13
0.0
 23
0.0
 33
0.0
 16
1.0
 26
0.0
 36
0.0
 17
0.0
 27
1.0
 37
0.0
 76
     0
330
D6
  0
LAYOUT
  5
22
102
{ACAD_XDICTIONARY
360
B9FE
102
}
102
{ACAD_REACTORS
330
1A
102
}
330
1A
100
AcDbPlotSettings
  1

  2
none_device
  4
ISO_A4_(210.00_x_297.00_MM)
  6

 40
7.5
 41
20.0
 42
7.5
 43
20.0
 44
210.0
 45
297.0
 46
11.54999923706054
 47
-13.65000009536743
 48
0.0
 49
0.0
140
0.0
141
0.0
142
1.0
143
8.704084754739808
 70
 11952
 72
     1
 73
     0
 74
     0
  7

 75
     0
147
0.1148885871608098
148
0.0
149
0.0
100
AcDbLayout
  1
Model
 70
     1
 71
     0
 10
0.0
 20
0.0
 11
12.0
 21
9.0
 12
0.0
 22
0.0
 32
0.0
 14
0.0
 24
0.0
 34
0.0
 15
0.0
 25
0.0
 35
0.0
146
0.0
 13
0.0
 23
0.0
 33
0.0
 16
1.0
 26
0.0
 36
0.0
 17
0.0
 27
1.0
 37
0.0
 76
     0
330
1F
331
EA
1001
ACAD_PSEXT
1000
None
1000
None
1000
Not applicable
1000
The layout will not be plotted unless a new plotter configuration name is selected.
1070
     0
  0
MATERIAL
  5
ED
102
{ACAD_XDICTIONARY
360
1F9
102
}
102
{ACAD_REACTORS
330
6A
102
}
330
6A
100
AcDbMaterial
  1
ByBlock
  0
MATERIAL
  5
EC
102
{ACAD_XDICTIONARY
360
1F7
102
}
102
{ACAD_REACTORS
330
6A
102
}
330
6A
100
AcDbMaterial
  1
ByLayer
  0
MATERIAL
  5
EE
102
{ACAD_XDICTIONARY
360
173
102
}
102
{ACAD_REACTORS
330
6A
102
}
330
6A
100
AcDbMaterial
  1
Global
 43
0.0007999999797903
 43
0.0
 43
0.0
 43
0.0
 43
0.0
 43
0.0007999999797903
 43
0.0
 43
0.0
 43
0.0
 43
0.0
 43
1.0
 43
0.0
 43
0.0
 43
0.0
 43
0.0
 43
1.0
 49
0.0007999999797903
 49
0.0
 49
0.0
 49
0.0
 49
0.0
 49
0.0007999999797903
 49
0.0
 49
0.0
 49
0.0
 49
0.0
 49
1.0
 49
0.0
 49
0.0
 49
0.0
 49
0.0
 49
1.0
142
0.0007999999797903
142
0.0
142
0.0
142
0.0
142
0.0
142
0.0007999999797903
142
0.0
142
0.0
142
0.0
142
0.0
142
1.0
142
0.0
142
0.0
142
0.0
142
0.0
142
1.0
144
0.0007999999797903
144
0.0
144
0.0
144
0.0
144
0.0
144
0.0007999999797903
144
0.0
144
0.0
144
0.0
144
0.0
144
1.0
144
0.0
144
0.0
144
0.0
144
0.0
144
1.0
1001
ACAD
1070
    -1
1070
     3
1070
     0
1000

1071
        0
1070
     0
  0
MLEADERSTYLE
  5
12E
102
{ACAD_XDICTIONARY
360
BA28
102
}
102
{ACAD_REACTORS
330
12D
102
}
330
12D
100
AcDbMLeaderStyle
170
     2
171
     1
172
     0
 90
        2
 40
0.0
 41
0.0
173
     1
 91
-1056964608
340
14
 92
       -2
290
     1
 42
2.0
291
     1
 43
8.0
  3
Standard
 44
4.0
300

342
11
174
     1
178
     1
175
     1
176
     0
 93
-1056964608
 45
4.0
292
     0
297
     0
 46
4.0
 94
-1056964608
 47
1.0
 49
1.0
140
1.0
293
     1
141
0.0
294
     1
177
     0
142
1.0
295
     0
296
     0
143
3.75
1001
ACAD_MLEADERVER
1070
     2
  0
MLINESTYLE
  5
18
102
{ACAD_REACTORS
330
17
102
}
330
17
100
AcDbMlineStyle
  2
STANDARD
 70
     0
  3

 62
   256
 51
90.0
 52
90.0
 71
     2
 49
0.5
 62
   256
  6
BYLAYER
 49
-0.5
 62
   256
  6
BYLAYER
  0
ACDBPLACEHOLDER
  5
F
102
{ACAD_REACTORS
330
E
102
}
330
E
  0
SCALE
  5
10D
102
{ACAD_REACTORS
330
10C
102
}
330
10C
100
AcDbScale
 70
     0
300
1:1
140
1.0
141
1.0
290
     1
  0
SCALE
  5
1BE
102
{ACAD_REACTORS
330
10C
102
}
330
10C
100
AcDbScale
 70
     0
300
1:2
140
1.0
141
2.0
290
     0
  0
SCALE
  5
1BF
102
{ACAD_REACTORS
330
10C
102
}
330
10C
100
AcDbScale
 70
     0
300
1:4
140
1.0
141
4.0
290
     0
  0
SCALE
  5
1C0
102
{ACAD_REACTORS
330
10C
102
}
330
10C
100
AcDbScale
 70
     0
300
1:5
140
1.0
141
5.0
290
     0
  0
SCALE
  5
1C1
102
{ACAD_REACTORS
330
10C
102
}
330
10C
100
AcDbScale
 70
     0
300
1:8
140
1.0
141
8.0
290
     0
  0
SCALE
  5
1C2
102
{ACAD_REACTORS
330
10C
102
}
330
10C
100
AcDbScale
 70
     0
300
1:10
140
1.0
141
10.0
290
     0
  0
SCALE
  5
1C3
102
{ACAD_REACTORS
330
10C
102
}
330
10C
100
AcDbScale
 70
     0
300
1:16
140
1.0
141
16.0
290
     0
  0
SCALE
  5
1C4
102
{ACAD_REACTORS
330
10C
102
}
330
10C
100
AcDbScale
 70
     0
300
1:20
140
1.0
141
20.0
290
     0
  0
SCALE
  5
1C5
102
{ACAD_REACTORS
330
10C
102
}
330
10C
100
AcDbScale
 70
     0
300
1:30
140
1.0
141
30.0
290
     0
  0
SCALE
  5
1C6
102
{ACAD_REACTORS
330
10C
102
}
330
10C
100
AcDbScale
 70
     0
300
1:40
140
1.0
141
40.0
290
     0
  0
SCALE
  5
1C7
102
{ACAD_REACTORS
330
10C
102
}
330
10C
100
AcDbScale
 70
     0
300
1:50
140
1.0
141
50.0
290
     0
  0
SCALE
  5
1C8
102
{ACAD_REACTORS
330
10C
102
}
330
10C
100
AcDbScale
 70
     0
300
1:100
140
1.0
141
100.0
290
     0
  0
SCALE
  5
1C9
102
{ACAD_REACTORS
330
10C
102
}
330
10C
100
AcDbScale
 70
     0
300
2:1
140
2.0
141
1.0
290
     0
  0
SCALE
  5
1CA
102
{ACAD_REACTORS
330
10C
102
}
330
10C
100
AcDbScale
 70
     0
300
4:1
140
4.0
141
1.0
290
     0
  0
SCALE
  5
1CB
102
{ACAD_REACTORS
330
10C
102
}
330
10C
100
AcDbScale
 70
     0
300
8:1
140
8.0
141
1.0
290
     0
  0
SCALE
  5
1CC
102
{ACAD_REACTORS
330
10C
102
}
330
10C
100
AcDbScale
 70
     0
300
10:1
140
10.0
141
1.0
290
     0
  0
SCALE
  5
1CD
102
{ACAD_REACTORS
330
10C
102
}
330
10C
100
AcDbScale
 70
     0
300
100:1
140
100.0
141
1.0
290
     0
  0
ACDBSECTIONVIEWSTYLE
  5
21A
102
{ACAD_XDICTIONARY
360
BA3A
102
}
102
{ACAD_REACTORS
330
219
102
}
330
219
100
AcDbModelDocViewStyle
 70
     0
  3
Metric50
290
     0
100
AcDbSectionViewStyle
 70
     0
 71
     0
 90
      102
 71
     1
340
11
 40
5.0
340
0
340
0
 40
5.0
300
I, O, Q, S, X, Z
 40
10.0
 90
        0
 40
2.5
 90
        0
 71
     2
340
16
 90
       25
340
16
 90
       50
 40
5.0
 40
2.5
 40
5.0
 71
     3
340
11
 40
5.0
 90
        0
 40
15.0
 90
        1
300
%<\AcVar ViewSectionStartId>%-%<\AcVar ViewSectionEndId>% (%<\AcVar ViewScale \f "%sn">%)
 71
     4
300
ANSI31
 40
1.0
 90
        0
290
     0
290
     0
 90
        6
 40
0.0
 40
1.570796326794896
 40
0.2617993877991494
 40
1.308996938995747
 40
-0.2617993877991494
 40
1.832595714594046
  0
TABLESTYLE
  5
7F
102
{ACAD_XDICTIONARY
360
162
102
}
102
{ACAD_REACTORS
330
7E
102
}
330
7E
100
AcDbTableStyle
  3
Standard
 70
     0
 71
     0
 40
1.5
 41
1.5
280
     0
281
     0
  7
Standard
140
4.5
170
     2
 62
     0
 63
     7
283
     0
274
    -2
284
     1
 64
     0
275
    -2
285
     1
 65
     0
276
    -2
286
     1
 66
     0
277
    -2
287
     1
 67
     0
278
    -2
288
     1
 68
     0
279
    -2
289
     1
 69
     0
  7
Standard
140
6.0
170
     5
 62
     0
 63
     7
283
     0
274
    -2
284
     1
 64
     0
275
    -2
285
     1
 65
     0
276
    -2
286
     1
 66
     0
277
    -2
287
     1
 67
     0
278
    -2
288
     1
 68
     0
279
    -2
289
     1
 69
     0
  7
Standard
140
4.5
170
     5
 62
     0
 63
     7
283
     0
274
    -2
284
     1
 64
     0
275
    -2
285
     1
 65
     0
276
    -2
286
     1
 66
     0
277
    -2
287
     1
 67
     0
278
    -2
288
     1
 68
     0
279
    -2
289
     1
 69
     0
  0
VISUALSTYLE
  5
F5
102
{ACAD_XDICTIONARY
360
BA12
102
}
102
{ACAD_REACTORS
330
EF
102
}
330
EF
100
AcDbVisualStyle
  2
2dWireframe
 70
     4
 71
     0
 72
     2
 73
     1
 90
        0
 40
-0.6
 41
-30.0
 62
     5
 63
     7
 74
     1
 91
        4
 64
     7
 65
   257
 75
     1
175
     1
 42
1.0
 92
        0
 66
   257
 43
1.0
 76
     1
 77
     6
 78
     2
 67
     7
 79
     5
170
     0
171
     0
290
     0
174
     0
 93
        1
 44
0.0
173
     0
291
     0
 45
0.0
1001
ACAD
1000
AcDbSavedByObjectVersion
1070
     0
  0
VISUALSTYLE
  5
F4
102
{ACAD_XDICTIONARY
360
BA10
102
}
102
{ACAD_REACTORS
330
EF
102
}
330
EF
100
AcDbVisualStyle
  2
Basic
 70
     7
 71
     1
 72
     0
 73
     1
 90
        0
 40
-0.6
 41
-30.0
 62
     5
 63
     7
 74
     0
 91
        4
 64
     7
 65
   257
 75
     1
175
     1
 42
1.0
 92
        8
 66
     7
 43
1.0
 76
     1
 77
     6
 78
     2
 67
     7
 79
     5
170
     0
171
     0
290
     0
174
     0
 93
        1
 44
0.0
173
     0
291
     1
 45
0.0
1001
ACAD
1000
AcDbSavedByObjectVersion
1070
     0
  0
VISUALSTYLE
  5
FB
102
{ACAD_XDICTIONARY
360
BA1E
102
}
102
{ACAD_REACTORS
330
EF
102
}
330
EF
100
AcDbVisualStyle
  2
Brighten
 70
    12
 71
     2
 72
     2
 73
     1
 90
        0
 40
-0.6
 41
-30.0
 62
     5
 63
     7
 74
     1
 91
        4
 64
     7
 65
   257
 75
     1
175
     1
 42
1.0
 92
        8
 66
     7
 43
1.0
 76
     1
 77
     6
 78
     2
 67
     7
 79
     5
170
     0
171
     0
290
     0
174
     0
 93
        1
 44
50.0
173
     0
291
     1
 45
0.0
1001
ACAD
1000
AcDbSavedByObjectVersion
1070
     0
  0
VISUALSTYLE
  5
FF
102
{ACAD_XDICTIONARY
360
BA26
102
}
102
{ACAD_REACTORS
330
EF
102
}
330
EF
100
AcDbVisualStyle
  2
ColorChange
 70
    16
 71
     2
 72
     2
 73
     3
 90
        0
 40
-0.6
 41
-30.0
 62
     5
 63
     8
 74
     1
 91
        4
 64
     7
 65
   257
 75
     1
175
     1
 42
1.0
 92
        8
 66
     8
 43
1.0
 76
     1
 77
     6
 78
     2
 67
     7
 79
     5
170
     0
171
     0
290
     0
174
     0
 93
        1
 44
0.0
173
     0
291
     1
 45
0.0
1001
ACAD
1000
AcDbSavedByObjectVersion
1070
     0
  0
VISUALSTYLE
  5
F8
102
{ACAD_XDICTIONARY
360
BA18
102
}
102
{ACAD_REACTORS
330
EF
102
}
330
EF
100
AcDbVisualStyle
  2
Conceptual
 70
     9
 71
     3
 72
     2
 73
     1
 90
        0
 40
-0.6
 41
-30.0
 62
     5
 63
     7
 74
     2
 91
        2
 64
     7
 65
   257
 75
     1
175
     1
 42
40.0
 92
        8
 66
     7
 43
1.0
 76
     1
 77
     6
 78
     2
 67
     7
 79
     3
170
     0
171
     0
290
     0
174
     0
 93
        1
 44
0.0
173
     0
291
     0
 45
0.0
1001
ACAD
1000
AcDbSavedByObjectVersion
1070
     0
  0
VISUALSTYLE
  5
FA
102
{ACAD_XDICTIONARY
360
BA1C
102
}
102
{ACAD_REACTORS
330
EF
102
}
330
EF
100
AcDbVisualStyle
  2
Dim
 70
    11
 71
     2
 72
     2
 73
     1
 90
        0
 40
-0.6
 41
-30.0
 62
     5
 63
     7
 74
     1
 91
        4
 64
     7
 65
   257
 75
     1
175
     1
 42
1.0
 92
        8
 66
     7
 43
1.0
 76
     1
 77
     6
 78
     2
 67
     7
 79
     5
170
     0
171
     0
290
     0
174
     0
 93
        1
 44
-50.0
173
     0
291
     1
 45
0.0
1001
ACAD
1000
AcDbSavedByObjectVersion
1070
     0
  0
VISUALSTYLE
  5
1E6
102
{ACAD_XDICTIONARY
360
BA2E
102
}
102
{ACAD_REACTORS
330
EF
102
}
330
EF
100
AcDbVisualStyle
  2
EdgeColorOff
 70
    22
 71
     2
 72
     2
 73
     0
 90
        0
 40
-0.6
 41
-30.0
 62
     5
 63
     7
 74
     1
 91
        4
 64
     7
 65
   257
 75
     1
175
     1
 42
1.0
 92
        8
 66
     7
 43
1.0
 76
     1
 77
     6
 78
     2
 67
     7
 79
     5
170
     0
171
     0
290
     0
174
     0
 93
        1
 44
0.0
173
     0
291
     1
 45
0.0
1001
ACAD
1000
AcDbSavedByObjectVersion
1070
     0
  0
VISUALSTYLE
  5
FE
102
{ACAD_XDICTIONARY
360
BA24
102
}
102
{ACAD_REACTORS
330
EF
102
}
330
EF
100
AcDbVisualStyle
  2
Facepattern
 70
    15
 71
     2
 72
     2
 73
     1
 90
        0
 40
-0.6
 41
-30.0
 62
     5
 63
     7
 74
     1
 91
        4
 64
     7
 65
   257
 75
     1
175
     1
 42
1.0
 92
        8
 66
     7
 43
1.0
 76
     1
 77
     6
 78
     2
 67
     7
 79
     5
170
     0
171
     0
290
     0
174
     0
 93
        1
 44
0.0
173
     0
291
     1
 45
0.0
1001
ACAD
1000
AcDbSavedByObjectVersion
1070
     0
  0
VISUALSTYLE
  5
F0
102
{ACAD_XDICTIONARY
360
BA08
102
}
102
{ACAD_REACTORS
330
EF
102
}
330
EF
100
AcDbVisualStyle
  2
Flat
 70
     0
 71
     2
 72
     1
 73
     1
 90
        2
 40
-0.6
 41
30.0
 62
     5
 63
     7
 74
     0
 91
        0
 64
     7
 65
   257
 75
     1
175
     1
 42
1.0
 92
        8
 66
     7
 43
1.0
 76
     1
 77
     6
 78
     2
 67
     7
 79
     5
170
     0
171
     0
290
     0
174
     0
 93
       13
 44
0.0
173
     0
291
     1
 45
0.0
1001
ACAD
1000
AcDbSavedByObjectVersion
1070
     0
  0
VISUALSTYLE
  5
F1
102
{ACAD_XDICTIONARY
360
BA0A
102
}
102
{ACAD_REACTORS
330
EF
102
}
330
EF
100
AcDbVisualStyle
  2
FlatWithEdges
 70
     1
 71
     2
 72
     1
 73
     1
 90
        2
 40
-0.6
 41
30.0
 62
     5
 63
     7
 74
     1
 91
        0
 64
     7
 65
   257
 75
     1
175
     1
 42
1.0
 92
        0
 66
   257
 43
1.0
 76
     1
 77
     6
 78
     2
 67
     7
 79
     5
170
     0
171
     0
290
     0
174
     0
 93
       13
 44
0.0
173
     0
291
     1
 45
0.0
1001
ACAD
1000
AcDbSavedByObjectVersion
1070
     0
  0
VISUALSTYLE
  5
F2
102
{ACAD_XDICTIONARY
360
BA0C
102
}
102
{ACAD_REACTORS
330
EF
102
}
330
EF
100
AcDbVisualStyle
  2
Gouraud
 70
     2
 71
     2
 72
     2
 73
     1
 90
        2
 40
-0.6
 41
30.0
 62
     5
 63
     7
 74
     0
 91
        0
 64
     7
 65
   257
 75
     1
175
     1
 42
1.0
 92
        0
 66
     7
 43
1.0
 76
     1
 77
     6
 78
     2
 67
     7
 79
     5
170
     0
171
     0
290
     0
174
     0
 93
       13
 44
0.0
173
     0
291
     1
 45
0.0
1001
ACAD
1000
AcDbSavedByObjectVersion
1070
     0
  0
VISUALSTYLE
  5
F3
102
{ACAD_XDICTIONARY
360
BA0E
102
}
102
{ACAD_REACTORS
330
EF
102
}
330
EF
100
AcDbVisualStyle
  2
GouraudWithEdges
 70
     3
 71
     2
 72
     2
 73
     1
 90
        2
 40
-0.6
 41
30.0
 62
     5
 63
     7
 74
     1
 91
        0
 64
     7
 65
   257
 75
     1
175
     1
 42
1.0
 92
        0
 66
   257
 43
1.0
 76
     1
 77
     6
 78
     2
 67
     7
 79
     5
170
     0
171
     0
290
     0
174
     0
 93
       13
 44
0.0
173
     0
291
     1
 45
0.0
1001
ACAD
1000
AcDbSavedByObjectVersion
1070
     0
  0
VISUALSTYLE
  5
F7
102
{ACAD_XDICTIONARY
360
BA16
102
}
102
{ACAD_REACTORS
330
EF
102
}
330
EF
100
AcDbVisualStyle
  2
Hidden
 70
     6
 71
     1
 72
     2
 73
     2
 90
        0
 40
-0.6
 41
-30.0
 62
     5
 63
     7
 74
     2
 91
        2
 64
     7
 65
   257
 75
     2
175
     1
 42
40.0
 92
        0
 66
   257
 43
1.0
 76
     1
 77
     6
 78
     2
 67
     7
 79
     3
170
     0
171
     0
290
     0
174
     0
 93
        1
 44
0.0
173
     0
291
     0
 45
0.0
1001
ACAD
1000
AcDbSavedByObjectVersion
1070
     0
  0
VISUALSTYLE
  5
1E4
102
{ACAD_XDICTIONARY
360
BA2A
102
}
102
{ACAD_REACTORS
330
EF
102
}
330
EF
100
AcDbVisualStyle
  2
JitterOff
 70
    20
 71
     2
 72
     2
 73
     0
 90
        0
 40
-0.6
 41
-30.0
 62
     5
 63
     7
 74
     1
 91
        4
 64
     7
 65
   257
 75
     1
175
     1
 42
1.0
 92
       10
 66
     7
 43
1.0
 76
     1
 77
     6
 78
     2
 67
     7
 79
     5
170
     0
171
     0
290
     0
174
     0
 93
        1
 44
0.0
173
     0
291
     1
 45
0.0
1001
ACAD
1000
AcDbSavedByObjectVersion
1070
     0
  0
VISUALSTYLE
  5
FD
102
{ACAD_XDICTIONARY
360
BA22
102
}
102
{ACAD_REACTORS
330
EF
102
}
330
EF
100
AcDbVisualStyle
  2
Linepattern
 70
    14
 71
     2
 72
     2
 73
     1
 90
        0
 40
-0.6
 41
-30.0
 62
     5
 63
     7
 74
     1
 91
        4
 64
     7
 65
   257
 75
     7
175
     7
 42
1.0
 92
        8
 66
     7
 43
1.0
 76
     1
 77
     6
 78
     2
 67
     7
 79
     5
170
     0
171
     0
290
     0
174
     0
 93
        1
 44
0.0
173
     0
291
     1
 45
0.0
1001
ACAD
1000
AcDbSavedByObjectVersion
1070
     0
  0
VISUALSTYLE
  5
1E5
102
{ACAD_XDICTIONARY
360
BA2C
102
}
102
{ACAD_REACTORS
330
EF
102
}
330
EF
100
AcDbVisualStyle
  2
OverhangOff
 70
    21
 71
     2
 72
     2
 73
     0
 90
        0
 40
-0.6
 41
-30.0
 62
     5
 63
     7
 74
     1
 91
        4
 64
     7
 65
   257
 75
     1
175
     1
 42
1.0
 92
        9
 66
     7
 43
1.0
 76
     1
 77
     6
 78
     2
 67
     7
 79
     5
170
     0
171
     0
290
     0
174
     0
 93
        1
 44
0.0
173
     0
291
     1
 45
0.0
1001
ACAD
1000
AcDbSavedByObjectVersion
1070
     0
  0
VISUALSTYLE
  5
F9
102
{ACAD_XDICTIONARY
360
BA1A
102
}
102
{ACAD_REACTORS
330
EF
102
}
330
EF
100
AcDbVisualStyle
  2
Realistic
 70
     8
 71
     2
 72
     2
 73
     0
 90
        2
 40
-0.6
 41
30.0
 62
     5
 63
     7
 74
     0
 91
        0
 64
     7
 65
   257
 75
     1
175
     1
 42
1.0
 92
        8
 66
   257
 43
1.0
 76
     1
 77
     6
 78
     2
 67
     7
 79
     3
170
     0
171
     0
290
     0
174
     0
 93
       13
 44
0.0
173
     0
291
     0
 45
0.0
1001
ACAD
1000
AcDbSavedByObjectVersion
1070
     0
  0
VISUALSTYLE
  5
1F3
102
{ACAD_XDICTIONARY
360
BA38
102
}
102
{ACAD_REACTORS
330
EF
102
}
330
EF
100
AcDbVisualStyle
  2
Shaded
 70
    27
 71
     2
 72
     2
 73
     1
 90
        2
 40
-0.6
 41
30.0
 62
     5
 63
     7
 74
     0
 91
        4
 64
     7
 65
   257
 75
     1
175
     1
 42
1.0
 92
        8
 66
   257
 43
1.0
 76
     1
 77
     6
 78
     2
 67
     8
 79
     3
170
     0
171
     0
290
     0
174
     0
 93
        5
 44
0.0
173
     0
291
     0
 45
0.0
1001
ACAD
1000
AcDbSavedByObjectVersion
1070
     0
  0
VISUALSTYLE
  5
1F2
102
{ACAD_XDICTIONARY
360
BA36
102
}
102
{ACAD_REACTORS
330
EF
102
}
330
EF
100
AcDbVisualStyle
  2
Shaded with edges
 70
    26
 71
     2
 72
     2
 73
     1
 90
        2
 40
-0.6
 41
30.0
 62
     5
 63
     7
 74
     1
 91
        2
 64
     7
 65
   257
 75
     2
175
     1
 42
1.0
 92
        8
 66
   257
 43
1.0
 76
     1
 77
     6
 78
     2
 67
     7
 79
     3
170
     0
171
     0
290
     0
174
     0
 93
        5
 44
0.0
173
     0
291
     0
 45
0.0
1001
ACAD
1000
AcDbSavedByObjectVersion
1070
     0
  0
VISUALSTYLE
  5
1EF
102
{ACAD_XDICTIONARY
360
BA30
102
}
102
{ACAD_REACTORS
330
EF
102
}
330
EF
100
AcDbVisualStyle
  2
Shades of Gray
 70
    23
 71
     2
 72
     2
 73
     3
 90
        0
 40
-0.6
 41
-30.0
 62
     5
 63
     7
 74
     2
 91
        2
 64
     7
 65
     7
 75
     1
175
     1
 42
40.0
 92
        8
 66
     7
 43
1.0
 76
     1
 77
     6
 78
     2
 67
     7
 79
     3
170
     0
171
     0
290
     0
174
     0
 93
        1
 44
0.0
173
     0
291
     0
 45
0.0
1001
ACAD
1000
AcDbSavedByObjectVersion
1070
     0
  0
VISUALSTYLE
  5
1F0
102
{ACAD_XDICTIONARY
360
BA32
102
}
102
{ACAD_REACTORS
330
EF
102
}
330
EF
100
AcDbVisualStyle
  2
Sketchy
 70
    24
 71
     1
 72
     2
 73
     2
 90
        0
 40
-0.6
 41
-30.0
 62
     5
 63
     7
 74
     2
 91
        2
 64
     7
 65
     7
 75
     1
175
     1
 42
40.0
 92
       11
 66
     7
 43
1.0
 76
     1
 77
     6
 78
     2
 67
     7
 79
     6
170
     0
171
     0
290
     0
174
     0
 93
        1
 44
0.0
173
     0
291
     0
 45
0.0
1001
ACAD
1000
AcDbSavedByObjectVersion
1070
     0
  0
VISUALSTYLE
  5
FC
102
{ACAD_XDICTIONARY
360
BA20
102
}
102
{ACAD_REACTORS
330
EF
102
}
330
EF
100
AcDbVisualStyle
  2
Thicken
 70
    13
 71
     2
 72
     2
 73
     1
 90
        0
 40
-0.6
 41
-30.0
 62
     5
 63
     7
 74
     1
 91
        4
 64
     7
 65
   257
 75
     1
175
     1
 42
1.0
 92
       12
 66
     7
 43
1.0
 76
     1
 77
     6
 78
     2
 67
     7
 79
     5
170
     0
171
     0
290
     0
174
     0
 93
        1
 44
0.0
173
     0
291
     1
 45
0.0
1001
ACAD
1000
AcDbSavedByObjectVersion
1070
     0
  0
VISUALSTYLE
  5
F6
102
{ACAD_XDICTIONARY
360
BA14
102
}
102
{ACAD_REACTORS
330
EF
102
}
330
EF
100
AcDbVisualStyle
  2
Wireframe
 70
     5
 71
     0
 72
     2
 73
     0
 90
        0
 40
-0.6
 41
-30.0
 62
     5
 63
     7
 74
     1
 91
        4
 64
     7
 65
   257
 75
     1
175
     1
 42
1.0
 92
        0
 66
   257
 43
1.0
 76
     1
 77
     6
 78
     2
 67
     7
 79
     3
170
     0
171
     0
290
     0
174
     0
 93
        1
 44
0.0
173
     0
291
     0
 45
0.0
1001
ACAD
1000
AcDbSavedByObjectVersion
1070
     0
  0
VISUALSTYLE
  5
1F1
102
{ACAD_XDICTIONARY
360
BA34
102
}
102
{ACAD_REACTORS
330
EF
102
}
330
EF
100
AcDbVisualStyle
  2
X-Ray
 70
    25
 71
     2
 72
     2
 73
     1
 90
        1
 40
0.5
 41
-30.0
 62
     5
 63
     7
 74
     1
 91
        0
 64
     7
 65
   257
 75
     1
175
     1
 42
1.0
 92
        8
 66
     7
 43
1.0
 76
     1
 77
     6
 78
     2
 67
     7
 79
     3
170
     0
171
     0
290
     0
174
     0
 93
       13
 44
0.0
173
     0
291
     0
 45
0.0
1001
ACAD
1000
AcDbSavedByObjectVersion
1070
     0
  0
DICTIONARYVAR
  5
146
102
{ACAD_REACTORS
330
5E
102
}
330
5E
100
DictionaryVariables
280
     0
  1
1:1
  0
DICTIONARYVAR
  5
259
102
{ACAD_REACTORS
330
5E
102
}
330
5E
100
DictionaryVariables
280
     0
  1
3.500000
  0
DICTIONARYVAR
  5
25A
102
{ACAD_REACTORS
330
5E
102
}
330
5E
100
DictionaryVariables
280
     0
  1
acadiso.lin
  0
DICTIONARYVAR
  5
145
102
{ACAD_REACTORS
330
5E
102
}
330
5E
100
DictionaryVariables
280
     0
  1
STANDARD
  0
DICTIONARYVAR
  5
84
102
{ACAD_REACTORS
330
5E
102
}
330
5E
100
DictionaryVariables
280
     0
  1
STANDARD
  0
DICTIONARYVAR
  5
227
102
{ACAD_REACTORS
330
5E
102
}
330
5E
100
DictionaryVariables
280
     0
  1
Metric50
  0
DICTIONARYVAR
  5
228
102
{ACAD_REACTORS
330
5E
102
}
330
5E
100
DictionaryVariables
280
     0
  1
Metric50
  0
DICTIONARYVAR
  5
5F
102
{ACAD_REACTORS
330
5E
102
}
330
5E
100
DictionaryVariables
280
     0
  1
2
  0
DICTIONARYVAR
  5
63
102
{ACAD_REACTORS
330
5E
102
}
330
5E
100
DictionaryVariables
280
     0
  1
1
  0
DICTIONARYVAR
  5
B9A9
102
{ACAD_REACTORS
330
5E
102
}
330
5E
100
DictionaryVariables
280
     0
  1
0
  0
DICTIONARYVAR
  5
1AE
102
{ACAD_REACTORS
330
5E
102
}
330
5E
100
DictionaryVariables
280
     0
  1
0
  0
DICTIONARYVAR
  5
1AF
102
{ACAD_REACTORS
330
5E
102
}
330
5E
100
DictionaryVariables
280
     0
  1
0
  0
DICTIONARYVAR
  5
B9A7
102
{ACAD_REACTORS
330
5E
102
}
330
5E
100
DictionaryVariables
280
     0
  1
2
  0
DICTIONARYVAR
  5
B9A6
102
{ACAD_REACTORS
330
5E
102
}
330
5E
100
DictionaryVariables
280
     0
  1
1
  0
DICTIONARYVAR
  5
B9F9
102
{ACAD_REACTORS
330
5E
102
}
330
5E
100
DictionaryVariables
280
     0
  1
80.000000
  0
DICTIONARYVAR
  5
B9F8
102
{ACAD_REACTORS
330
5E
102
}
330
5E
100
DictionaryVariables
280
     0
  1
5.000000
  0
DICTIONARYVAR
  5
B9A8
102
{ACAD_REACTORS
330
5E
102
}
330
5E
100
DictionaryVariables
280
     0
  1
127
  0
DICTIONARYVAR
  5
B9FA
102
{ACAD_REACTORS
330
5E
102
}
330
5E
100
DictionaryVariables
280
     0
  1
2
  0
DICTIONARY
  5
BA3C
330
21C
100
AcDbDictionary
280
     1
281
     1
  3
ACAD_XREC_ROUNDTRIP
360
BA3D
  0
DICTIONARY
  5
BA01
330
D3
100
AcDbDictionary
280
     1
281
     1
  3
ACAD_XREC_ROUNDTRIP
360
BA02
  0
DICTIONARY
  5
BA03
330
D7
100
AcDbDictionary
280
     1
281
     1
  3
ACAD_XREC_ROUNDTRIP
360
BA04
  0
DICTIONARY
  5
B9FE
330
22
100
AcDbDictionary
280
     1
281
     1
  3
ACAD_XREC_ROUNDTRIP
360
B9FF
  0
DICTIONARY
  5
1F9
330
ED
100
AcDbDictionary
280
     1
281
     1
  3
ACAD_XREC_ROUNDTRIP
360
BA06
  3
FBXASSET
360
1FA
  0
DICTIONARY
  5
1F7
330
EC
100
AcDbDictionary
280
     1
281
     1
  3
ACAD_XREC_ROUNDTRIP
360
BA05
  3
FBXASSET
360
1F8
  0
DICTIONARY
  5
173
330
EE
100
AcDbDictionary
280
     1
281
     1
  3
ACAD_XREC_ROUNDTRIP
360
BA07
  3
BUMPTILE
360
175
  3
DIFFUSETILE
360
174
  3
FBXASSET
360
1FB
  3
OPACITYTILE
360
176
  3
REFLECTIONTILE
360
177
  0
DICTIONARY
  5
BA28
330
12E
100
AcDbDictionary
280
     1
281
     1
  3
ACAD_XREC_ROUNDTRIP
360
BA29
  0
DICTIONARY
  5
BA3A
330
21A
100
AcDbDictionary
280
     1
281
     1
  3
ACAD_XREC_ROUNDTRIP
360
BA3B
  0
DICTIONARY
  5
162
330
7F
100
AcDbDictionary
280
     1
281
     1
  3
ACAD_ROUNDTRIP_2008_TABLESTYLE_CELLSTYLEMAP
360
B9FB
  3
ACAD_XREC_ROUNDTRIP
360
BA00
  0
DICTIONARY
  5
BA12
330
F5
100
AcDbDictionary
280
     1
281
     1
  3
ACAD_XREC_ROUNDTRIP
360
BA13
  0
DICTIONARY
  5
BA10
330
F4
100
AcDbDictionary
280
     1
281
     1
  3
ACAD_XREC_ROUNDTRIP
360
BA11
  0
DICTIONARY
  5
BA1E
330
FB
100
AcDbDictionary
280
     1
281
     1
  3
ACAD_XREC_ROUNDTRIP
360
BA1F
  0
DICTIONARY
  5
BA26
330
FF
100
AcDbDictionary
280
     1
281
     1
  3
ACAD_XREC_ROUNDTRIP
360
BA27
  0
DICTIONARY
  5
BA18
330
F8
100
AcDbDictionary
280
     1
281
     1
  3
ACAD_XREC_ROUNDTRIP
360
BA19
  0
DICTIONARY
  5
BA1C
330
FA
100
AcDbDictionary
280
     1
281
     1
  3
ACAD_XREC_ROUNDTRIP
360
BA1D
  0
DICTIONARY
  5
BA2E
330
1E6
100
AcDbDictionary
280
     1
281
     1
  3
ACAD_XREC_ROUNDTRIP
360
BA2F
  0
DICTIONARY
  5
BA24
330
FE
100
AcDbDictionary
280
     1
281
     1
  3
ACAD_XREC_ROUNDTRIP
360
BA25
  0
DICTIONARY
  5
BA08
330
F0
100
AcDbDictionary
280
     1
281
     1
  3
ACAD_XREC_ROUNDTRIP
360
BA09
  0
DICTIONARY
  5
BA0A
330
F1
100
AcDbDictionary
280
     1
281
     1
  3
ACAD_XREC_ROUNDTRIP
360
BA0B
  0
DICTIONARY
  5
BA0C
330
F2
100
AcDbDictionary
280
     1
281
     1
  3
ACAD_XREC_ROUNDTRIP
360
BA0D
  0
DICTIONARY
  5
BA0E
330
F3
100
AcDbDictionary
280
     1
281
     1
  3
ACAD_XREC_ROUNDTRIP
360
BA0F
  0
DICTIONARY
  5
BA16
330
F7
100
AcDbDictionary
280
     1
281
     1
  3
ACAD_XREC_ROUNDTRIP
360
BA17
  0
DICTIONARY
  5
BA2A
330
1E4
100
AcDbDictionary
280
     1
281
     1
  3
ACAD_XREC_ROUNDTRIP
360
BA2B
  0
DICTIONARY
  5
BA22
330
FD
100
AcDbDictionary
280
     1
281
     1
  3
ACAD_XREC_ROUNDTRIP
360
BA23
  0
DICTIONARY
  5
BA2C
330
1E5
100
AcDbDictionary
280
     1
281
     1
  3
ACAD_XREC_ROUNDTRIP
360
BA2D
  0
DICTIONARY
  5
BA1A
330
F9
100
AcDbDictionary
280
     1
281
     1
  3
ACAD_XREC_ROUNDTRIP
360
BA1B
  0
DICTIONARY
  5
BA38
330
1F3
100
AcDbDictionary
280
     1
281
     1
  3
ACAD_XREC_ROUNDTRIP
360
BA39
  0
DICTIONARY
  5
BA36
330
1F2
100
AcDbDictionary
280
     1
281
     1
  3
ACAD_XREC_ROUNDTRIP
360
BA37
  0
DICTIONARY
  5
BA30
330
1EF
100
AcDbDictionary
280
     1
281
     1
  3
ACAD_XREC_ROUNDTRIP
360
BA31
  0
DICTIONARY
  5
BA32
330
1F0
100
AcDbDictionary
280
     1
281
     1
  3
ACAD_XREC_ROUNDTRIP
360
BA33
  0
DICTIONARY
  5
BA20
330
FC
100
AcDbDictionary
280
     1
281
     1
  3
ACAD_XREC_ROUNDTRIP
360
BA21
  0
DICTIONARY
  5
BA14
330
F6
100
AcDbDictionary
280
     1
281
     1
  3
ACAD_XREC_ROUNDTRIP
360
BA15
  0
DICTIONARY
  5
BA34
330
1F1
100
AcDbDictionary
280
     1
281
     1
  3
ACAD_XREC_ROUNDTRIP
360
BA35
  0
XRECORD
  5
BA3D
102
{ACAD_REACTORS
330
BA3C
102
}
330
BA3C
100
AcDbXrecord
280
     1
102
DISPLAYNAME
  1
Metric50
102
FLAGS
 90
        0
  0
XRECORD
  5
BA02
102
{ACAD_REACTORS
330
BA01
102
}
330
BA01
100
AcDbXrecord
280
     1
102
SHADEPLOT
 70
     0
102
SHADEPLOTRESLEVEL
 70
     2
102
SHADEPLOTCUSTOMDPI
 70
   300
  0
XRECORD
  5
BA04
102
{ACAD_REACTORS
330
BA03
102
}
330
BA03
100
AcDbXrecord
280
     1
102
SHADEPLOT
 70
     0
102
SHADEPLOTRESLEVEL
 70
     2
102
SHADEPLOTCUSTOMDPI
 70
   300
  0
XRECORD
  5
B9FF
102
{ACAD_REACTORS
330
B9FE
102
}
330
B9FE
100
AcDbXrecord
280
     1
102
SHADEPLOT
 70
     0
102
SHADEPLOTRESLEVEL
 70
     2
102
SHADEPLOTCUSTOMDPI
 70
   300
  0
XRECORD
  5
BA06
102
{ACAD_REACTORS
330
1F9
102
}
330
1F9
100
AcDbXrecord
280
     1
102
MATERIAL
148
0.0
149
0.0
149
0.0
 93
        0
 94
       63
282
     0
 72
     1
 77
     1
171
     1
175
     1
179
     1
273
     0
  0
XRECORD
  5
1FA
102
{ACAD_REACTORS
330
1F9
102
}
330
1F9
100
AcDbXrecord
280
     1
 70
     1
 90
429727718
  1
D62C5603-E3A1-4AEA-B7FB-FE5D8D0755AF
310
504B03040A0000080000CC70623B3DEE336E79000000790000001B0000006175746F6465736B2D64657369676E2D7061636B6167652E786D6C3C3F786D6C2076657273696F6E3D22312E302220656E636F64696E673D227574662D3822203F3E3C666F726D6174733E3C666F726D61743E687474703A2F2F736368656D612E
310
6175746F6465736B2E636F6D2F64657369676E2D7061636B6167652F323030393C2F666F726D61743E3C2F666F726D6174733E504B0304140006080800CC70623BD486FD9CA0000000F4000000130000005B436F6E74656E745F54797065735D2E786D6C7D8EC10E82300C865F65E91D8A1E8C310C0EEA1BF002731658846E
310
D98AC1B77784ABF1D8FE5FBFBF75BBCE937A534CCEB38643598122B6FEE978D0B0485F9C41B54DDD7D022595594E1A469170414C76A4D9A4D207E29CF43ECE46F218070CC6BECC4078ACAA135ACF422C856C0E68EA1BF5669944DDD7BCDE7B1F8E415D77AECB980613C2E4AC91FC167A2B244592486606FC29C8FD7F045B9A
310
EF7053A7E60B504B0304140006080800CC70623B853B8169EB0000007C01000008000000636F72652E786D6C8D90416EC3201045AF62CDB6C206821CC7C244919D9CA01740401C94182C03558F5F9C3852BBEB6A467FFE9B197D7EFC9E1EC5975982F5AE035262288C535E5B377690E21535501C055FBC8FBF6C503839990E
310
5619041F179FE64D52DE45E362569DD7661365082642A11EB9E920A89B99642953CC8E702F67A9EE7234257977194EC9EAE275C4EABCCF5EAD5940D4AC6F0E35A568B8F43562CD7046CD199FD07E60174276A7BE677B5EADB0E0D14EEFFB6A31321A0D82627C4084204C3F096B71DD52F6819B16635EADF63F509AF53FA164
310
5DDCD1EDDD17164090FCC8732078B56691CB33A85CD7DCC40F504B0304140006080800CC70623B55019EA25F0000007C00000007000000636E782E786D6C4DCB3B0E80201045D1AD90E915ED2CF8AC45050C11660C8261F98AB1B07AC9C97D42D718D865D3E909258CFD00CCE24AC6E326A164D74DC0B4128928FF32603847
310
2BA13128B1252AC747C6BAB984FC68F0B87FE8960A5C09FE86CFB69FBA01504B0304140006080800CC70623BDBABAAF470010000D40300000C0000006662782F636F72652E786D6CC553D16E823014FD95A6AF4B694182CC941A83FA05FB810A9511A125A5257EFE2E82712ECEB8A7F100CD39F7F69E734AF9FADC366850B6
310
AF8DCE7018308C942E4C59EB2AC3DE1D498AD15A706B8CFB56869196ADCAF00863C12B6B7C374385D14E6907A836A59A41D9F7CA615434B0C8705F7CAA5606D23BA8E84F41278B93AC54100640439DE0BDB320004D43C63716C7C399D30917DCFBBA9CD9BA8469F5B156168B24CED3F7248AC8769F27244EB73B92EED8862C
310
B7F13E0C179B3C8F979C8ECD82BBBABDAA2BAC924E9558448CBD9330242CFA08E3154B5651FCC6D215639C8EE5774DBE2B5F6CF2B5768B68963BB5F5588420E442FC700B1139D4CB01F450C1E918227C2E09DF070D8140C84E1E9AAB8F1340832A9CB13130A5F1376A908D57309505ECF2A0DF179C4E9D30F5B239B87E3823
310
7A79C6F31DE1A8A5AEC08474B03C7837EAE4938639B44E5932B833D2C6B6B279CDC613877FA26EE21F4A2A4C63EC7F29A2F301D1F9F7A0E37D145F504B0304140006080800CC70623B9C113CC27E0000009D0000000B0000006662782F636E782E786D6C4DCCDF0A83201C86E15B91DFB94BFB330DD428C8FB886521330DA7
310
6397BF1A1DECE883878F57749FCDA1B7892F1BBC047A23808C7F84D9FA55424E0BE6803A256208E9EF06C84F9B91703228B1C690F78B66B34CD9A5439DF5CF0BFBF65E35BCA1B8D6A5C6F540381E886698B5741C695F9503EBA150A2F8958E3DC3EA0B504B0304140006080800CC70623B7DF2F77C2A010000120200003100
310
00006662782F41393633353835312D344632462D344230382D423046372D3739314545314133324237412F636F72652E786D6C8D51DB8EC22014FC15C2939B0D2DB4B45643319AE817EC0F6041255A68B86CFCFC856D4D76DF7CE190393373060EDB3DC707F856CE6B6B7A480A0C81328395DA5C7B18C3057510EC3873D686
310
3F34088C18550F330C39BB3A1BA7051AAC09CA84841A2BD5020AEF55806078A44B0FFD7053A328440C89E1EFC52486BBB8AA8214A99D789CF9E05200300FC927E4FB4D5B375D43103D5527440FB843077C5AA3F5861C8F645F5787F59E95B390B318B55CE45AA638FAA2957BD7248B390B7A7CC51F9C124149C82B8C378810
310
84AB2F42B7B8DD56F413775B8C5999E9FF4471926F8AA236A1AE96B8B3CC434E5839373893369E1FAF30EA395917409EB7F26AF8801C171837A4A6AC9C89E9F9C9B1A58BA30FD6A5EF5DDDCF894B9AD9B6A59C957943A9FCAE2FD5BC4DFE03504B0304140006080800CC70623BAD7543B64E01000033030000300000006662
310
782F41393633353835312D344632462D344230382D423046372D3739314545314133324237412F636E782E786D6CD593CD6EC32010845F0571AD6CE3D48AD20813A9873E410FBD12D82434182C7EAAE6EDBB2424CD25871E7B41D6EC30B3FA84F9E67BB2E40B4234DE8DB46F1925E094D7C6ED479AD3AE5951B2113C789FEE
310
6C943839C1488B4C05DF079FE72A69D8C96C13AAD6B8631503449F83828872B949AC57D26200B826A308D316B4064D6E46FCDA41C05550DC9E483A00797BFD207EFB092A45DE9514C1BBD22178396BD39D891265658C238DEA00936C654E5E433CB65A26D9F6EDB5EBC14EBF49A45CB856E66048291F6939A9A81BB5C89177
310
38143CA680F4AA299D66A042CEB3354A2684DC9D8D178FE0D9B8B41CAAD720F880EE7EF93C0C18769E099ECC04D5A102C8049A8A05632F4DDF376CF1DE0F6BB65C2F8627B65A33C6BB62177CEBBDAD973006829F89F22E814B54F4BC2BE347F8AA8F681390B50FA73F804400B5F542E796F19FF974E7F78DB802FE05E20750
310
4B0304140006080800CC70623BE75B7789680500003C100000340000006662782F41393633353835312D344632462D344230382D423046372D3739314545314133324237412F6F626A656374732E786D6CAD575B8F9B3818FD2B887D06C22499CB8AA1CA655245D5B455A356FB305264C061D8018C6C3393D95FBFC7600890
310
A4CD5EF210B0B1BFEBF98E3F7B1FF6596ABC522E1296DF9BAE3D320D9A872C4AF2F8DE2CE5CEBA358D0FBEC719939D65A691938CDE9B6ADAF4BD98B3B2D05311DD91329583D9D5FC0F438434A7A611A644887B5384CF34233629258BA878B12322891DEFF6B66BD70BFB62634E8AE781D082709A4B588AF91C528CDA28B73F
310
1C998EEF39EABBEFA97FBD6A7C7E9553F9D3D79FE442923C3C523610337627CB87ABE99D359D4CC6D6E4FACAB5E6ABF9D2726FC6A3C5F56271377BB88362213924694B38DD99FE47C48627A1E7D49F5A8BB5E1A74C0A599ED3B0F21F1E56366B89112D681E218F0915D0D6F17AD41FBA2A369DCF6335D62ABBD39779D5DDD1
310
11D4D8DE3CBB96B2E04FB8202E41051754A1AA8E8F76B4C6DFE810B580B1547F4B84911149794252234D024EF8BBE963A95AE27B3D310A9D5C215C7960FAEE415ED75694C6AFB17BCACA5D99A60A9AA65F217B0BFC53292ACB92BF283FAD0D3621576592CB5BED907C2FA8E9DF794E35E97BEA31BED21FEB401ABB94C44839
310
DCACBF0E1C5DA8DA5B2F4DFFD32AD86F543D9E565E7056502E157C00AD2671CD534549AB752FCA9CDA00677A313F04E51B22FF19E57B300579E3C97EB29F682D92935CEC18CF901B7B54FD8C51F362B56FC72FE0B3C1EAE335EDCCBF5AEC39ADB17DC238973F804BA5E6F6BFE7AF1FB32E523BE9F3BD571418E3631DCA4D48
310
5250CF639223210A9446CA30052EDF057BD35F8329C1ECD84552BF0DC8D18BE7BCE23BFE6BD960AB4A7DE79923A103BEBD80F911CBAA2C60DB19B01CF164A5583B772EE6D3FFA56666CBCDA74DC97724A48F9A58967497E489C4D979006FD7A05E227A1EBDD0F737C623387A9C844D3709995625106D157315F8B8392CD4E0
310
A0B9A720C4BE9829CEF37EA1E13111214D53925356365ADA634861B52519DD27A00AEB808EAF0628E6F435519D446F45CF2C9CF5214F0A15B2F6D06B79DA3EE3CBF7F56780D2F4E7EF73A0F5E5B02A38D07DC852C6B7C1FBB6664213E0C39E3EBA7FF4E1AD23EA2829407C85E586727488B751B2DB9502BC7B228A3FD68B6E
310
A65A22397E690AA8D158D7E404EC8CDA235CC3B7D1898680131CEC2CDF2638C65196279577750F15884AEE19F94199155B92B13297978469D4F8D358DF0AEF7631E28DC8F0D9F437D5D39A83B2231A1D52D543813A824EF8D44BCFF2FA6A31BD1E8DAD87F1CCB526B3879935BF59CDADD5C37479BB1CDD4CA7B3556B516589
310
EF352754B706114D9C885EC9131DE6EFEB43D99AFE2391C2F958179413D7CFEF6B1B6DB1E7600F00DE6E5C67454A339A4BA2E0FBA85ED26F045D454F463DBFCE484C2F90F2E5E3666003662ED8F755951A7D1BECD5B30B550B2785C8E7320B7292A4838DDA71BBC863ED7613CAF659337A3354231D4FF4A182A54904C2898C
310
98B28C4AD0CE056CCF332A80986E571EE9DBC305BB5FEB7E509220A58D25CF042D712A806AC0AD0C657FDEF80D2D9CEAA2EE4D1C76F60BFE74219A06527D6F82DF6412526107381E55E353090704D085B52408A8913C4ED159D79BDA71BB4BC506F4831350EB6F975CD22D69BF7AC49B91A2C0A9DDA3D5CA36AD20FC478E37
310
E61844E2352865EBCB61A275A65283CAAA9DD27703B4102F5AF51EF5F573B75CBB5AD38BC845F7A49F82A0966A49C2E3EA5EA0ECD326CD965F1DB402C6FA8B51A4658C5C5E2EC9E214602E55810345408596591009A82E7E7FFACA19EEA299B14A0081A705CB3296EBC14CDF658DCD336EA6D1136881AAEB87B81AB9EE53D5
310
F5EB8BC8362082DA24122F98680A4E7930C01A0079749CEA14382A0783E5EBA5A10F8C098456A03D6A4AEB6BB881E2513747552A5DB22C7EDAF83BD5528081A365F7FF06504B0304140006080000CC70623B000000000000000000000000350000006662782F41393633353835312D344632462D344230382D423046372D37
310
39314545314133324237412F76657274696365732E62696E504B0304140006080800CC70623BF270F1330600000004000000360000006662782F41393633353835312D344632462D344230382D423046372D3739314545314133324237412F747269616E676C65732E62696E636660600000504B0304140006080000CC7062
310
3B000000000000000000000000370000006662782F41393633353835312D344632462D344230382D423046372D3739314545314133324237412F617474726962757465732E62696E504B0304140006080800CC70623B08DA0BD19000000041010000360000006662782F41393633353835312D344632462D344230382D4230
310
46372D3739314545314133324237412F6469726563746F72792E786D6C858F410AC3201045AF22B36F53E9A60B35CBEEBAE80D244E44489C6234F4F835464A48035D0DF398FF9F8AF63D0E6CC63039F212F8F9020C7D47C6792B21C5FE7403D62A1188E2E60C98D7234A5830286103A55745067B9D86B8A3CF9C7F90C11DE6
310
07FB144396D7B6A82D282E9A152AD114D5EF2CB866EEE831B8EEA07A7BB5A8D7D61A2BAAEB7FD5F70921FF497D00504B0304140006080800CC70623BEDD1DC58FD000000A00100003B0000006662782F41393633353835312D344632462D344230382D423046372D3739314545314133324237412F7265736F75726365732F
310
636F72652E786D6C8D504B6E833010BD0A9A6D65B00922041947112427E8052C33A156828DFCA97AFC9A40A576D7CDCCE87D344F8F9FBFE667F689CE6B6B3A6039850C8DB2A336530731DC4903D95970676DF82583CCC8193B5861107C72362E3BA4AC096842428D1D7107A5F7182053CF7474E0D507CE32973124857FE48B
310
540F3961CEF244279DE03EB81420DB9EAC1384436FA353E879B1B182C7A8C75DA3C7F453DF353A1075D537A7BA6464B8F535A99AE14A9A2BBD90E350DD183B5CFABE3AF262350B1EF4FC9351399401471025A527C218A1E53BAB5A5AB765F5469B96525EACF23FA6B88CFF34456DC2A1DCE36E360F82A5202F42F062ED2BAD
310
579969AFDD8A6F504B010214000A0000080000CC70623B3DEE336E79000000790000001B00000000000000000000000000000000006175746F6465736B2D64657369676E2D7061636B6167652E786D6C504B01021400140006080800CC70623BD486FD9CA0000000F40000001300000000000000000000000000B20000005B
310
436F6E74656E745F54797065735D2E786D6C504B01021400140006080800CC70623B853B8169EB0000007C010000080000000000000000000000000083010000636F72652E786D6C504B01021400140006080800CC70623B55019EA25F0000007C000000070000000000000000000000000094020000636E782E786D6C504B
310
01021400140006080800CC70623BDBABAAF470010000D40300000C00000000000000000000000000180300006662782F636F72652E786D6C504B01021400140006080800CC70623B9C113CC27E0000009D0000000B00000000000000000000000000B20400006662782F636E782E786D6C504B01021400140006080800CC70
310
623B7DF2F77C2A010000120200003100000000000000000000000000590500006662782F41393633353835312D344632462D344230382D423046372D3739314545314133324237412F636F72652E786D6C504B01021400140006080800CC70623BAD7543B64E010000330300003000000000000000000000000000D2060000
310
6662782F41393633353835312D344632462D344230382D423046372D3739314545314133324237412F636E782E786D6C504B01021400140006080800CC70623BE75B7789680500003C10000034000000000000000000000000006E0800006662782F41393633353835312D344632462D344230382D423046372D3739314545
310
314133324237412F6F626A656374732E786D6C504B01021400140006080000CC70623B0000000000000000000000003500000000000000000000000000280E00006662782F41393633353835312D344632462D344230382D423046372D3739314545314133324237412F76657274696365732E62696E504B01021400140006
310
080800CC70623BF270F133060000000400000036000000000000000000000000007B0E00006662782F41393633353835312D344632462D344230382D423046372D3739314545314133324237412F747269616E676C65732E62696E504B01021400140006080000CC70623B0000000000000000000000003700000000000000
310
000000000000D50E00006662782F41393633353835312D344632462D344230382D423046372D3739314545314133324237412F617474726962757465732E62696E504B01021400140006080800CC70623B08DA0BD1900000004101000036000000000000000000000000002A0F00006662782F41393633353835312D344632
310
462D344230382D423046372D3739314545314133324237412F6469726563746F72792E786D6C504B01021400140006080800CC70623BEDD1DC58FD000000A00100003B000000000000000000000000000E1000006662782F41393633353835312D344632462D344230382D423046372D3739314545314133324237412F7265
310
736F75726365732F636F72652E786D6C504B0506000000000E000E0080040000641100000000
  0
XRECORD
  5
BA05
102
{ACAD_REACTORS
330
1F7
102
}
330
1F7
100
AcDbXrecord
280
     1
102
MATERIAL
148
0.0
149
0.0
149
0.0
 93
        0
 94
       63
282
     0
 72
     1
 77
     1
171
     1
175
     1
179
     1
273
     0
  0
XRECORD
  5
1F8
102
{ACAD_REACTORS
330
1F7
102
}
330
1F7
100
AcDbXrecord
280
     1
 70
     1
 90
429727718
  1
30362254-06B7-45E0-A893-8CFA70E3D6BC
310
504B03040A0000080000CC70623B3DEE336E79000000790000001B0000006175746F6465736B2D64657369676E2D7061636B6167652E786D6C3C3F786D6C2076657273696F6E3D22312E302220656E636F64696E673D227574662D3822203F3E3C666F726D6174733E3C666F726D61743E687474703A2F2F736368656D612E
310
6175746F6465736B2E636F6D2F64657369676E2D7061636B6167652F323030393C2F666F726D61743E3C2F666F726D6174733E504B0304140006080800CC70623BD486FD9CA0000000F4000000130000005B436F6E74656E745F54797065735D2E786D6C7D8EC10E82300C865F65E91D8A1E8C310C0EEA1BF002731658846E
310
D98AC1B77784ABF1D8FE5FBFBF75BBCE937A534CCEB38643598122B6FEE978D0B0485F9C41B54DDD7D022595594E1A469170414C76A4D9A4D207E29CF43ECE46F218070CC6BECC4078ACAA135ACF422C856C0E68EA1BF5669944DDD7BCDE7B1F8E415D77AECB980613C2E4AC91FC167A2B244592486606FC29C8FD7F045B9A
310
EF7053A7E60B504B0304140006080800CC70623B1EC5D7A3EB0000007C01000008000000636F72652E786D6C8D90416EC3201045AF82665B6103C6756C6122AB4D4ED00B204C5C94182C03558F5F9C3852BBEB6A467FFE9B197D71FC9E6FE8CBACC17AD7032D0820E3B41FAD9B7A48F1820F808E52ACDEC75F36404ECDA687
310
4D0629A6D5A76597B477D1B89855E747B38B2A041301E95B6E7A08FAD3CCAA50296647B8168BD2573599823EBB0CA76447F43862C7BCCF5EAC59410E4DDD9C7973C2755553CCCFA4C603E3040F1565ED3B1FDE4E432BCA0D9622DAF9795FAF464533826484B498524CD807E51D79ED187F21878E10516EF63F505AC67F42C9
310
BA58B1FDDD071640D2FCC87D2045B96591CB3DA85CB7DCE40F504B0304140006080800CC70623B55019EA25F0000007C00000007000000636E782E786D6C4DCB3B0E80201045D1AD90E915ED2CF8AC45050C11660C8261F98AB1B07AC9C97D42D718D865D3E909258CFD00CCE24AC6E326A164D74DC0B4128928FF32603847
310
2BA13128B1252AC747C6BAB984FC68F0B87FE8960A5C09FE86CFB69FBA01504B0304140006080800CC70623B8C9102E971010000D40300000C0000006662782F636F72652E786D6CC5535B6E833010BC8AE5DF0A6C08340F1947A84D4ED00B38C6A128602363A31CBFCB234A53A551FA553EC09AD9F5CE8C31DB9E9B1AF5CA
310
7695D1198E428A91D2D214952E33ECDD315861B4E5CC1AE3BE9561A445A3323CC098B3D21ADFCE9034DA29ED00D5A6503328BA4E398C640D8B0C77F253352214DE4145770A5B214FA2546114020D759C75CE8200340D19DE981F0F6746269C33EFAB6266AB02A655C74A59CCF365BADC27CB5D902ED22848F6340DF238A141
310
BE88E2F57B92BFEDF23523433367AE6A2EEAA455C2A902F398D2751045018D3FA264435F3771F242571B4A1919CA6F9A7C5B3CD9E42BED16F12C776AEB308F40C848FC700B1139D4891EF410CEC810227CC6846F8386402064270EF5C5C709A05E49676C024C61FC95EA45ED154CA5211D1FF4FB8291A913A68E9B83EBBB33
310
E2A7673CDE118E5AE8124C0807CB8377834E366998436B950D7A7746DAD846D4CFD978E0F04FD455FC5D49D2D4C6FE9722321F10997F0F32DC47FE05504B0304140006080800CC70623BFFEA85907E0000009D0000000B0000006662782F636E782E786D6C4DCCD10A83201886E15B91FFDC95D95A811AB6F23E625948A6C3
310
E9D8E5AF46073BFAE0E1E365ED67B3E8ADC3CB78C7815C7240DA3DFC64DCC221C519D7805AC182F7F1EF06C88D9BE6703008B6049F9E274D7A1E938DBB5AE3D6131B2589BA0D3D965551E0B2EA732C9B9A624AAEB41E3A557677029960D9AFB4EF11165F504B0304140006080800CC70623B4FEEA4082C0100001202000031
310
0000006662782F39464131463745442D413632322D343644302D413938332D3331353338454246344243312F636F72652E786D6C8D515B6EC32010BC0AE2AB55850DD871ED0813254D72825EC00192A2C460F1A872FC42ED48ED5F7E00CDCECCCEB26C731F6FE05B39AFADE921293004CA082BB5B9F43086336A21D870E6AC
310
0D7F68109861543DCC30E4ECE26C9C164858139409093556AA051CBC570102714B8F1E7AF1A5C6A11862480C7F2DA6415C878B2A4891CA89C7990F2E050073937C42DE1DB7E4F87ED8A36D4329AA9B3D46DBAEAD504556557BD81DEBDD0761E52CE42C462D17B996298E3E6BE59E35C962CE821E1FF18553435012728A7187
310
0841987E927A8D9B35ADDF70BBC6989599FE4F1427F9A4286A132ABAC49D651EF234CD5CE04CDA78BA3DC2A8FB645D00B9DF8B57E215725C60BCA2A463E54C4CE327C7A65E1C7DB02E7DEFCBF594B864C5CA6CDBD49C957943E9FA5D5FBAF336F90F504B0304140006080800CC70623BAD7543B64E01000033030000300000
310
006662782F39464131463745442D413632322D343644302D413938332D3331353338454246344243312F636E782E786D6CD593CD6EC32010845F0571AD6CE3D48AD20813A9873E410FBD12D82434182C7EAAE6EDBB2424CD25871E7B41D6EC30B3FA84F9E67BB2E40B4234DE8DB46F1925E094D7C6ED479AD3AE5951B2113C
310
789FEE6C943839C1488B4C05DF079FE72A69D8C96C13AAD6B8631503449F83828872B949AC57D26200B826A308D316B4064D6E46FCDA41C05550DC9E483A00797BFD207EFB092A45DE9514C1BBD22178396BD39D891265658C238DEA00936C654E5E433CB65A26D9F6EDB5EBC14EBF49A45CB856E66048291F6939A9A81BB5
310
C8917738143CA680F4AA299D66A042CEB3354A2684DC9D8D178FE0D9B8B41CAAD720F880EE7EF93C0C18769E099ECC04D5A102C8049A8A05632F4DDF376CF1DE0F6BB65C2F8627B65A33C6BB62177CEBBDAD973006829F89F22E814B54F4BC2BE347F8AA8F681390B50FA73F804400B5F542E796F19FF974E7F78DB802FE05
310
E207504B0304140006080800CC70623B16AB87BA640500003C100000340000006662782F39464131463745442D413632322D343644302D413938332D3331353338454246344243312F6F626A656374732E786D6CAD575B6FA33818FD2B887DE6924B3BED8A326A92B68A663B534DD4D13E548A0C38942D60649B369D5FBFC7
310
600890A493BDE42160637FD7F31D7FF63E6FB3D478A55C242CBF3247B66B1A340F5994E4F19559CA8D75611A9F7D8F33263BCB4C232719BD32D5B4E97B316765A1A722BA21652A07B3B7B33F0D11D29C9A46981221AE4C113ED38CD8A4942CA2E2C58E882476BCD9DA23BB5ED8171B73523C0F841684D35CC252CCE79062D4
310
468DFA43D7747CCF51DF7D4FFDEB5593E3AB9CCA9FBEFE241792E4E19EB28198C968BAB8199F5D5A67D3E9C49A9E8F47D6EC76B6B0469F26EEFC7C3EBFBCBEB98462213924694B38DD98FE1D62C393D073EA4FADC5DAF04326852CCF6958F90F0F2B9BB5C48816348F90C7840A68EB78EDF68723159BCEE7891A6B95DDE9D3
310
BCEAEEE8086A6C6F9E5D4B59F0175C10A7A0820BAA5055C7473B5AE3CFDD452D602CD5DF12616444529E90D448938013FE6EFA58AA96F85E4F8C42275708571E98FE6827AF6B2B4AE3D7D83D64E5A64C53054DD3AF90BD06FEA9149565C94FCA0F6B834DC85599E4F2423B24DF0B6AFA979E534DFA9E7A4CC6FA631D486393
310
921829879BF5D781A373557BCB85E97FB90DB62B558F8795179C15944B051F40AB495CF35451D26A4727654E6D8033BD98EF82F21D91FF8AF2DD9982BCF1643BDD4EB516C9492E368C67C88DED563FC36D5EACF66DFF057C3658BDBFA69DF9578B3DA735B64F18C7F20770A9D45CFCF7FCF563D6456A277DBEF78A02637CA2
310
43B90A490AEAB94F72244481D24819A6C0E59B606BFA4B3025981DBB48EAB701D97BF19C577CC77F2D1B6C55A9EF3C732474C0B727303F625995056C3B02963D9EAC146BE78EC5FCEC7FA999EBC5EACBAAE41B12D27B4D2C0BBA49F244E2ECDC81B76B502F113D8F5EE8FB1BE3111CDD4FC2AA9B844CAB1288B68AB90A7CDC
310
1C166AB0D3DC5310625FCC14E779BFD0709F8890A629C9292B1B2DED31A4B0DA928CEE135085754027E3018A397D4D5427D15BD1330B677DC8934285AC3DF45A9EB68FF8F2B8FC0A509AFEECFD0FF2DE25CC6047F7214B195F07EFEB9A094D800F7BFAE8FED187B78EA8A3A400F115961BCAD1215E47C966530AF0EE8128FE
310
58CEBB996A8964FFA529A046635D9353B0336A8F700DDF46271A024E70B0B37C9DE01847591E54DED53D54202AB947E4076556AC49C6CA5C9E1226B7F1A7B1BE15DEED62C41B91E1B3E9AFAAA735036547343A925075041DF0A9979E893B391F8FCFA6967B3EFB644DCF6E5CEBFAE272625DCC6FAF3FB93793C5F90CE1EF57
310
407342756B10D1C489E8953CD1617E5CEECAD6F4EF8914CE5D5D504E5C3F1F9736DA62CFC11E00BCDDB8CC8A9466349744C1F75EBDA4DF09BA8A9E8C7A7E9991989E20E5DBDD6A6003664ED8F7A04A8DBE0DF6EAD9B9AA858342E47399053949D2C146EDB85DE4B176BB0965FBAC19BD19AA918E27FA50C1D22402E144464C
310
59462568E704B6E71915404CB72B8FF4EDE184DDAF753F284990D2C6926782963815403548A70C657FDEF80D2D9CEAA2AE4C1C76F60BFE74219A06527D6582DF6412526107381E55E353090704D085B52408D0933C4ED159D79BDA71BB4BC506F4831350EB6F979CD22D69BF7AC49B91A2C0A9DDA3D5CA36AD20FC478E37E6
310
1844E2352865EBCB6EA275A652E3836BE04EFB400BF1A2556F515F1FBB35B2AB35BD889C744FFA1004B5544B121E57F70215746DD2F5E2C1412B602CBF19455AC6C8E5E9922C4E01E65215385004546899059180EAFCF7A707CE7017CD8CDB0410789AB32C63B91E5CEBBBACB17AC6CD347A022D5075FD106377347AAABA7E
310
7D11590744509B44E205134DC1290F06580320F78E537D3D73540E06CB970B431F185308AD40BBD794D6D77003C5A36E8EAA54BA64597CD8F83BD552A080A365F7FF06504B0304140006080000CC70623B000000000000000000000000350000006662782F39464131463745442D413632322D343644302D413938332D3331
310
353338454246344243312F76657274696365732E62696E504B0304140006080800CC70623BF270F1330600000004000000360000006662782F39464131463745442D413632322D343644302D413938332D3331353338454246344243312F747269616E676C65732E62696E636660600000504B0304140006080000CC70623B
310
000000000000000000000000370000006662782F39464131463745442D413632322D343644302D413938332D3331353338454246344243312F617474726962757465732E62696E504B0304140006080800CC70623B08DA0BD19000000041010000360000006662782F39464131463745442D413632322D343644302D413938
310
332D3331353338454246344243312F6469726563746F72792E786D6C858F410AC3201045AF22B36F53E9A60B35CBEEBAE80D244E44489C6234F4F835464A48035D0DF398FF9F8AF63D0E6CC63039F212F8F9020C7D47C6792B21C5FE7403D62A1188E2E60C98D7234A5830286103A55745067B9D86B8A3CF9C7F90C11DE607
310
FB144396D7B6A82D282E9A152AD114D5EF2CB866EEE831B8EEA07A7BB5A8D7D61A2BAAEB7FD5F70921FF497D00504B0304140006080800CC70623B0D6EF93BFE000000A00100003B0000006662782F39464131463745442D413632322D343644302D413938332D3331353338454246344243312F7265736F75726365732F63
310
6F72652E786D6C8D50596E833010BD0A9ADFCA60B334011947A8694ED00B586642AC041B79A97AFC9A40A5F6AF3F33A3B7689E1E3F7DCD8FEC139DD7D6F4C0720A191A65476DA61E62B892236427C19DB5E1970C322367EC618541F0C9D9B8EC90B226A009093576C41D94DE63804C3DD2D18357379C652E63480A7FCF17A9
310
EE72C29CE5894E3AC17D702940B63D59270887DE46A7D0F36263058F518FBB468FE9A7BE6A7420864373B8D4873369AA8691FA421B3294352543C5CAF65C0F6FEF43CB8BD52C78D0F34F46E550061C419494B6843142CB0F5677F4B52BEB177AEC28E5C52AFF638ACBF84F53D42654E51E77B379102C05791282176B5F693D
310
CB4C7BED567C03504B010214000A0000080000CC70623B3DEE336E79000000790000001B00000000000000000000000000000000006175746F6465736B2D64657369676E2D7061636B6167652E786D6C504B01021400140006080800CC70623BD486FD9CA0000000F40000001300000000000000000000000000B20000005B
310
436F6E74656E745F54797065735D2E786D6C504B01021400140006080800CC70623B1EC5D7A3EB0000007C010000080000000000000000000000000083010000636F72652E786D6C504B01021400140006080800CC70623B55019EA25F0000007C000000070000000000000000000000000094020000636E782E786D6C504B
310
01021400140006080800CC70623B8C9102E971010000D40300000C00000000000000000000000000180300006662782F636F72652E786D6C504B01021400140006080800CC70623BFFEA85907E0000009D0000000B00000000000000000000000000B30400006662782F636E782E786D6C504B01021400140006080800CC70
310
623B4FEEA4082C0100001202000031000000000000000000000000005A0500006662782F39464131463745442D413632322D343644302D413938332D3331353338454246344243312F636F72652E786D6C504B01021400140006080800CC70623BAD7543B64E010000330300003000000000000000000000000000D5060000
310
6662782F39464131463745442D413632322D343644302D413938332D3331353338454246344243312F636E782E786D6C504B01021400140006080800CC70623B16AB87BA640500003C1000003400000000000000000000000000710800006662782F39464131463745442D413632322D343644302D413938332D3331353338
310
454246344243312F6F626A656374732E786D6C504B01021400140006080000CC70623B0000000000000000000000003500000000000000000000000000270E00006662782F39464131463745442D413632322D343644302D413938332D3331353338454246344243312F76657274696365732E62696E504B01021400140006
310
080800CC70623BF270F133060000000400000036000000000000000000000000007A0E00006662782F39464131463745442D413632322D343644302D413938332D3331353338454246344243312F747269616E676C65732E62696E504B01021400140006080000CC70623B0000000000000000000000003700000000000000
310
000000000000D40E00006662782F39464131463745442D413632322D343644302D413938332D3331353338454246344243312F617474726962757465732E62696E504B01021400140006080800CC70623B08DA0BD190000000410100003600000000000000000000000000290F00006662782F39464131463745442D413632
310
322D343644302D413938332D3331353338454246344243312F6469726563746F72792E786D6C504B01021400140006080800CC70623B0D6EF93BFE000000A00100003B000000000000000000000000000D1000006662782F39464131463745442D413632322D343644302D413938332D3331353338454246344243312F7265
310
736F75726365732F636F72652E786D6C504B0506000000000E000E0080040000641100000000
  0
XRECORD
  5
BA07
102
{ACAD_REACTORS
330
173
102
}
330
173
100
AcDbXrecord
280
     1
102
MATERIAL
148
0.0
149
0.0
149
0.0
 93
        0
 94
       63
282
     0
 72
     1
 77
     1
171
     1
175
     1
179
     1
273
     0
  0
XRECORD
  5
175
102
{ACAD_REACTORS
330
173
102
}
330
173
100
AcDbXrecord
280
     1
270
     1
271
     1
  0
XRECORD
  5
174
102
{ACAD_REACTORS
330
173
102
}
330
173
100
AcDbXrecord
280
     1
270
     1
271
     1
  0
XRECORD
  5
1FB
102
{ACAD_REACTORS
330
173
102
}
330
173
100
AcDbXrecord
280
     1
 70
     0
 90
1673772943
  1
ECE7A1D2-D628-4531-984C-D00F80459256
310
504B03040A0000080000CC70623B3DEE336E79000000790000001B0000006175746F6465736B2D64657369676E2D7061636B6167652E786D6C3C3F786D6C2076657273696F6E3D22312E302220656E636F64696E673D227574662D3822203F3E3C666F726D6174733E3C666F726D61743E687474703A2F2F736368656D612E
310
6175746F6465736B2E636F6D2F64657369676E2D7061636B6167652F323030393C2F666F726D61743E3C2F666F726D6174733E504B0304140006080800CC70623BD486FD9CA0000000F4000000130000005B436F6E74656E745F54797065735D2E786D6C7D8EC10E82300C865F65E91D8A1E8C310C0EEA1BF002731658846E
310
D98AC1B77784ABF1D8FE5FBFBF75BBCE937A534CCEB38643598122B6FEE978D0B0485F9C41B54DDD7D022595594E1A469170414C76A4D9A4D207E29CF43ECE46F218070CC6BECC4078ACAA135ACF422C856C0E68EA1BF5669944DDD7BCDE7B1F8E415D77AECB980613C2E4AC91FC167A2B244592486606FC29C8FD7F045B9A
310
EF7053A7E60B504B0304140006080800CC70623BD9DDAED0EC0000007C01000008000000636F72652E786D6C8D90416EC3201045AF82665B61836D9CD8C2444DD39CA01740405C94182C03558F5F9C3852BBEB6A467FFE9B197D7EF89E6EE8CB2CC17A37002D0820E394D7D68D03A478C17B4007C117EFE32F1B20272733C0
310
2A83E0E3E2D3BC49CABB685CCCAAF3DA6CA20CC14440EA969B0182FA34932C648AD911AEC52CD5558EA6A0CF2EC329598D1E47ACCEFBECC59A050463A7EA5833865FEBDD0E37353BE3EE8DBDE3F6786A48D375FBF6CC78B9C282473B3DEFABC5C86834888A900E538A49F5419B9EB47DD5BC907D4F082F57FB1F28CDFA9F50
310
B22ED6D5F6EE030B20687EE43E10BC5CB3C8E51E54AE6B6EE207504B0304140006080800CC70623B55019EA25F0000007C00000007000000636E782E786D6C4DCB3B0E80201045D1AD90E915ED2CF8AC45050C11660C8261F98AB1B07AC9C97D42D718D865D3E909258CFD00CCE24AC6E326A164D74DC0B4128928FF326038
310
472BA13128B1252AC747C6BAB984FC68F0B87FE8960A5C09FE86CFB69FBA01504B0304140006080800CC70623BA24EB22D72010000D40300000C0000006662782F636F72652E786D6CC5535B6E833010BC8AE5DF0A6C5E49888CA3A6694ED00B38E05014B091B1518EDFE511A5A9D228FD2A1F60CDEC7A67C6986DCE4D8D7A
310
69BA4AAB0C073EC548AA5C17952A33ECECD15B61B4E1CC686DBF9561A44423333CC098B3D268D7CE50AE9595CA02AA74216750749DB418E5352C32DCE59FB211BE70162ABA93DF8AFC244AE9073ED050C759670D0840D390E18DF9F1706664C23973AE2A66B62A605A75ACA4C13C4976E1364A12EF355A2EBD384AF65EFA96
310
BC7B8BED2EA6719AAE16FB8491A199335B351775B991C2CA02F390D2D40B028F861F41BCA68B7518BFD0D59A524686F29B26D7164F36B94AD9289CE54E6D1DE6010819891F6E21228B3AD1831EC219194284CF98F06DD01008846CC5A1BEF83801D4CBDC6A1303536877A57A513B0953A94FC707FDBE6064EA84A9E3E6E0FA
310
EE8CF0E9198F7784A316AA0413C2C2F2E0ECA0934D1AE6D05A69BCDE9E91D2A611F573361E38FC1375157F5752AE6B6DFE4B11990F88CCBF0719EE23FF02504B0304140006080800CC70623B408A7D3B7C0000009D0000000B0000006662782F636E782E786D6C4DCCD10A83201886E15B91FFDC552A92A0064DBC8F581632
310
D3703A76F9ABD1C18E3E78F878E5F0D9027ABBFCF2292AE86E2D20171F69F6715550CB827B40839639A5F2770314A7CD293819B45C73AAFB45B35BA61ACAA1C1C7E7855C58C15BC331339661262CC762340413D68D77DA5B42298546CBE6573AF60CEB2F504B0304140006080800CC70623B449FB9BD290100001202000031
310
0000006662782F36394639363044362D344446342D343946362D394244322D3234314243333846323333332F636F72652E786D6C8D515B6EC32010BC0AE22B55850D98B871848994463E412FE002495162B07854397EA176A4F62F3F2C9A9D991D587EB84F37F0AD7D30CEF6905418026DA553C65E7A98E219ED203808EE9D
310
8B7F6810D871D23D2C3014FCE25D9A57483A1BB58D19B54EE9151C43D0110279CB971E06F9A5A7B11A53CC8C70ADE6515EC78BAE4895DB992778883E0700CB907242D17643D7E2538BD869608875438BBAE38922CAC8F1BDD90DB4691A5E2F42C153326A951B95E398B3D1FE599322163C9AE9115F7A3D46ADA0A018778810
310
84E907617BDCEE297BC5BB3DC6BC2EF47FA234AB2745C9D8D8D035EE220B50105E2F0DC1954B9FB747187D9F9D8FA0CCDB042D5FA0C015C65B42DF78BD10F3F3B363CB56C7109DCFDFBBB97E662ED92EB62D13BC2E1BCAE5777DB9966D8A1F504B0304140006080800CC70623BAD7543B64E01000033030000300000006662
310
782F36394639363044362D344446342D343946362D394244322D3234314243333846323333332F636E782E786D6CD593CD6EC32010845F0571AD6CE3D48AD20813A9873E410FBD12D82434182C7EAAE6EDBB2424CD25871E7B41D6EC30B3FA84F9E67BB2E40B4234DE8DB46F1925E094D7C6ED479AD3AE5951B2113C789FEE
310
6C943839C1488B4C05DF079FE72A69D8C96C13AAD6B8631503449F83828872B949AC57D26200B826A308D316B4064D6E46FCDA41C05550DC9E483A00797BFD207EFB092A45DE9514C1BBD22178396BD39D891265658C238DEA00936C654E5E433CB65A26D9F6EDB5EBC14EBF49A45CB856E66048291F6939A9A81BB5C89177
310
38143CA680F4AA299D66A042CEB3354A2684DC9D8D178FE0D9B8B41CAAD720F880EE7EF93C0C18769E099ECC04D5A102C8049A8A05632F4DDF376CF1DE0F6BB65C2F8627B65A33C6BB62177CEBBDAD973006829F89F22E814B54F4BC2BE347F8AA8F681390B50FA73F804400B5F542E796F19FF974E7F78DB802FE05E20750
310
4B0304140006080800CC70623B8D05915C650500003B100000340000006662782F36394639363044362D344446342D343946362D394244322D3234314243333846323333332F6F626A656374732E786D6CAD575B6FA33814FE2B887D06429276DA1565D4266D158D3A339A6846FB502932E050B66023DB74D2FDF5FB190C01
310
9276B2973C046C8ECFF53B17071F77456EBD502133CEAE6CDF9DD81665314F32965ED995DA3A17B6F5310C04E7AA47665B8C14F4CAD6DB7618A48257A5D94AE89654B91AEDDEDDFC61C998326A5B714EA4BCB265FC440BE2924AF184CA6737218AB8E976E7FA6E4338649B0A523E8D98964450A6A029F619B8588D52FE7039
310
B1BD30F0F4F730D0FF866AF6369557DB33949F31A9088B0F848DD8CCFCF9F2767A76E99CCDE733677E3EF59D9BBB9BA5E37F984D16E78BC5E5F5ED25044B25C0C96822E8D60EEFE11B91C581D77CEA34368A1F5329E68CD1B8B61F16D63A1B8E092D294B10C78C4A48EB593D192E7DED9BDEE7995E1B91FDEDD3ACEA9FE831
310
6A756F9F7D4D79F4274C90A7A04248AA51D5F8C718DAE06FB2F75AC4796EBE65D22A88A22223B995679120E2D50E41AA49C260C046A35368846B0BECD0DFF3EBEB8AD4F835768F69B9ADF25C43D30E6B646F807FAA64AD59F61715C7A54127C4AACA98BA3006A9D792DAE165E0D59B61A01FB3A9F9D838D2DAE62445C86166
310
F37564E842E7DE6A69879FEEA2DD5AE7E371E1A5E025154AC307D06A03D73EB5978C58FFA4C8E9033066E0F3BD53BEC1F39F91BE7B55103791EDE6BBB991A2046172CB4581D8B893FA674DDA17A77B3B7C413D1B511FD2743BFF8A38F03A658705E3ADF8015C3A3417FF3D7E439FF591DA0B5F18BC20C1B8981957AE6392A3
310
F43C640C01D1A0B4728E2DD4F26DB4B3C3152A252A3B4E913CEC1C72F012782FF88EFF8637AA552DBEF76408E8A8DE9E50F9E1CB3A2DA0DB1B6039A893B56063DC5B3E3FFB5F72E67AB9FEB4AEC496C4F4C1149625DD662C53E89D7BF0F6151A046260D1337DFDC94502430F83B0EE07A130A224BCAD7DAE1D9FB6CD422FF6
310
920702629C4BB9AE79C12F243C6432A6794E18E5552BA56B431AAB5D91317302B2B071E86C3A42B1A02F999E24061403B5D0EB639195DA655DD3EBEAB4FB862DDF579F014AD0E73C22F99E28DA57FB98E75C6CA2D74D53086D600F4786E0FE3144B771A8A7B900F03594DB8A633CBC49B2EDB69228BB479CF863B5E807AAAB
310
23872F6DFEB4129B949CA33823F58830E86D65621E10047D9DB34D862E8EAC3C2ABC2F7B2C40D67CDFE01F5545B92105AF983AC54D93D69E56FB8E797F88913F898A9FEC705D3F9D1B54EC8426FB500D40A03BD0119B06E1B95DDC7EB8F6975367793EBD70E66733DFB9BC982F9CE564727731999F5D4ECFCE3B8D6A4DC2A0
310
6D50FD148437D110834A64C6CDDF57FBACB5C307A2A477DFE4939736CFEF2B175371E0E10CF0DD1D5C15654E0BCA14D1E87DD02FF93782A162C0A3D95F1524A52770F972BF1EE9809D13CE7DD599467F8ECE9ADD85CE85A34CD45355448C64F9E8A031DC2D596ACC6E5DD93D9B82DE2EF5CAF81363A8E47996A0DE24564A79
310
4115AACE09C55E14540231FDA13C319787134EBF34E3A022514E5B4D9E0826E25C02D5805B15ABE1BEF51B26383D445DD9E875EE33FE4C22DA16427D65A3BCA92CA6D28DD01DF5DC53330704308475351050232CCD31583787BA75774AFB06E5070DD0C8EF484E19968C5D83BA5B90B244D31E54D55A372320FE4786B7EA58
310
44E135AA5467CB7EA333A61683CC6A8C3257034C10CF46F40EF9F5BE59BE5BD30C3C72D235E95D10345C1D45445A5F0BB47E46A5EBE5570F9380B5FA629579952296A773720405982B9DE04011506178964401AA8BDF1FBF0A8EAB6861DD6580C0E38217056766716DAEB2D6FA0917D3E4116581EADB879C4E7CFFB11EFACD
310
3D641311495D92C8676CB409A72D18610D803CE8A626049E8EC1887CB5B44CC39883690DDA8399B4B9855B481E7D71D4A9D22F96E5BB73BF5793020C02137BF837504B0304140006080000CC70623B000000000000000000000000350000006662782F36394639363044362D344446342D343946362D394244322D32343142
310
43333846323333332F76657274696365732E62696E504B0304140006080800CC70623BF270F1330600000004000000360000006662782F36394639363044362D344446342D343946362D394244322D3234314243333846323333332F747269616E676C65732E62696E636660600000504B0304140006080000CC70623B0000
310
00000000000000000000370000006662782F36394639363044362D344446342D343946362D394244322D3234314243333846323333332F617474726962757465732E62696E504B0304140006080800CC70623B08DA0BD19000000041010000360000006662782F36394639363044362D344446342D343946362D394244322D
310
3234314243333846323333332F6469726563746F72792E786D6C858F410AC3201045AF22B36F53E9A60B35CBEEBAE80D244E44489C6234F4F835464A48035D0DF398FF9F8AF63D0E6CC63039F212F8F9020C7D47C6792B21C5FE7403D62A1188E2E60C98D7234A5830286103A55745067B9D86B8A3CF9C7F90C11DE607FB14
310
4396D7B6A82D282E9A152AD114D5EF2CB866EEE831B8EEA07A7BB5A8D7D61A2BAAEB7FD5F70921FF497D00504B0304140006080800CC70623BCA768048FE000000A00100003B0000006662782F36394639363044362D344446342D343946362D394244322D3234314243333846323333332F7265736F75726365732F636F72
310
652E786D6C8D50596E833010BD0A9ADFCA60D600328E9AA639412F609909B1126CE4A5EAF16B0295DABFFECC8CDEA2797AECF8353F924FB44E193D409E5248504B332A3D0D10FC95B4901C39B3C6F85F3248B49871801506CE266BC2B243D2688FDA47549B11775038871E12F988C7004EDE7016A9083E2ADC3D5D84BC8B09
310
D33C8D74D471E6BC8D0192EDC93A815B742658898E651BCB59086ADC356A8C3FD555A1055ED7E7E254D615792D0F075295F585746FF53B694EE78A565DD736979A65AB9933AFE69F8CD2A2F038022F28ED489E135A7CE4554F9BBEA85E68DB53CAB255FEC71496F19FA6A0B42F8B3DEE6673C0F318E4497096AD7DC5F52C33
310
EEB55BFE0D504B010214000A0000080000CC70623B3DEE336E79000000790000001B00000000000000000000000000000000006175746F6465736B2D64657369676E2D7061636B6167652E786D6C504B01021400140006080800CC70623BD486FD9CA0000000F40000001300000000000000000000000000B20000005B436F
310
6E74656E745F54797065735D2E786D6C504B01021400140006080800CC70623BD9DDAED0EC0000007C010000080000000000000000000000000083010000636F72652E786D6C504B01021400140006080800CC70623B55019EA25F0000007C000000070000000000000000000000000095020000636E782E786D6C504B0102
310
1400140006080800CC70623BA24EB22D72010000D40300000C00000000000000000000000000190300006662782F636F72652E786D6C504B01021400140006080800CC70623B408A7D3B7C0000009D0000000B00000000000000000000000000B50400006662782F636E782E786D6C504B01021400140006080800CC70623B
310
449FB9BD290100001202000031000000000000000000000000005A0500006662782F36394639363044362D344446342D343946362D394244322D3234314243333846323333332F636F72652E786D6C504B01021400140006080800CC70623BAD7543B64E010000330300003000000000000000000000000000D20600006662
310
782F36394639363044362D344446342D343946362D394244322D3234314243333846323333332F636E782E786D6C504B01021400140006080800CC70623B8D05915C650500003B10000034000000000000000000000000006E0800006662782F36394639363044362D344446342D343946362D394244322D32343142433338
310
46323333332F6F626A656374732E786D6C504B01021400140006080000CC70623B0000000000000000000000003500000000000000000000000000250E00006662782F36394639363044362D344446342D343946362D394244322D3234314243333846323333332F76657274696365732E62696E504B010214001400060808
310
00CC70623BF270F13306000000040000003600000000000000000000000000780E00006662782F36394639363044362D344446342D343946362D394244322D3234314243333846323333332F747269616E676C65732E62696E504B01021400140006080000CC70623B00000000000000000000000037000000000000000000
310
00000000D20E00006662782F36394639363044362D344446342D343946362D394244322D3234314243333846323333332F617474726962757465732E62696E504B01021400140006080800CC70623B08DA0BD190000000410100003600000000000000000000000000270F00006662782F36394639363044362D344446342D
310
343946362D394244322D3234314243333846323333332F6469726563746F72792E786D6C504B01021400140006080800CC70623BCA768048FE000000A00100003B000000000000000000000000000B1000006662782F36394639363044362D344446342D343946362D394244322D3234314243333846323333332F7265736F
310
75726365732F636F72652E786D6C504B0506000000000E000E0080040000621100000000
  0
XRECORD
  5
176
102
{ACAD_REACTORS
330
173
102
}
330
173
100
AcDbXrecord
280
     1
270
     1
271
     1
  0
XRECORD
  5
177
102
{ACAD_REACTORS
330
173
102
}
330
173
100
AcDbXrecord
280
     1
270
     1
271
     1
  0
XRECORD
  5
BA29
102
{ACAD_REACTORS
330
BA28
102
}
330
BA28
100
AcDbXrecord
280
     1
102
ACAD_ROUNDTRIP_2012_MLEADER_STYLE
298
     1
  0
XRECORD
  5
BA3B
102
{ACAD_REACTORS
330
BA3A
102
}
330
BA3A
100
AcDbXrecord
280
     1
102
DISPLAYNAME
  1
Metric50
102
FLAGS
 90
        0
  0
CELLSTYLEMAP
  5
B9FB
102
{ACAD_REACTORS
330
162
102
}
330
162
100
AcDbCellStyleMap
 90
        3
300
CELLSTYLE
  1
TABLEFORMAT_BEGIN
 90
        5
170
     1
 91
        0
 92
    32768
 62
   257
 93
        1
300
CONTENTFORMAT
  1
CONTENTFORMAT_BEGIN
 90
        0
 91
        0
 92
      512
 93
        0
300

 40
0.0
140
1.0
 94
        5
 62
     0
340
11
144
6.0
309
CONTENTFORMAT_END
171
     1
301
MARGIN
  1
CELLMARGIN_BEGIN
 40
1.5
 40
1.5
 40
1.5
 40
1.5
 40
4.5
 40
4.5
309
CELLMARGIN_END
 94
        6
 95
        1
302
GRIDFORMAT
  1
GRIDFORMAT_BEGIN
 90
        0
 91
        1
 62
     0
 92
       -2
340
14
 93
        0
 40
1.125
309
GRIDFORMAT_END
 95
        2
302
GRIDFORMAT
  1
GRIDFORMAT_BEGIN
 90
        0
 91
        1
 62
     0
 92
       -2
340
14
 93
        0
 40
1.125
309
GRIDFORMAT_END
 95
        4
302
GRIDFORMAT
  1
GRIDFORMAT_BEGIN
 90
        0
 91
        1
 62
     0
 92
       -2
340
14
 93
        0
 40
1.125
309
GRIDFORMAT_END
 95
        8
302
GRIDFORMAT
  1
GRIDFORMAT_BEGIN
 90
        0
 91
        1
 62
     0
 92
       -2
340
14
 93
        0
 40
1.125
309
GRIDFORMAT_END
 95
       16
302
GRIDFORMAT
  1
GRIDFORMAT_BEGIN
 90
        0
 91
        1
 62
     0
 92
       -2
340
14
 93
        0
 40
1.125
309
GRIDFORMAT_END
 95
       32
302
GRIDFORMAT
  1
GRIDFORMAT_BEGIN
 90
        0
 91
        1
 62
     0
 92
       -2
340
14
 93
        0
 40
1.125
309
GRIDFORMAT_END
309
TABLEFORMAT_END
  1
CELLSTYLE_BEGIN
 90
        1
 91
        1
300
_TITLE
309
CELLSTYLE_END
300
CELLSTYLE
  1
TABLEFORMAT_BEGIN
 90
        5
170
     1
 91
        0
 92
        0
 62
   257
 93
        1
300
CONTENTFORMAT
  1
CONTENTFORMAT_BEGIN
 90
        0
 91
        0
 92
      512
 93
        0
300

 40
0.0
140
1.0
 94
        5
 62
     0
340
11
144
4.5
309
CONTENTFORMAT_END
171
     1
301
MARGIN
  1
CELLMARGIN_BEGIN
 40
1.5
 40
1.5
 40
1.5
 40
1.5
 40
4.5
 40
4.5
309
CELLMARGIN_END
 94
        6
 95
        1
302
GRIDFORMAT
  1
GRIDFORMAT_BEGIN
 90
        0
 91
        1
 62
     0
 92
       -2
340
14
 93
        0
 40
1.125
309
GRIDFORMAT_END
 95
        2
302
GRIDFORMAT
  1
GRIDFORMAT_BEGIN
 90
        0
 91
        1
 62
     0
 92
       -2
340
14
 93
        0
 40
1.125
309
GRIDFORMAT_END
 95
        4
302
GRIDFORMAT
  1
GRIDFORMAT_BEGIN
 90
        0
 91
        1
 62
     0
 92
       -2
340
14
 93
        0
 40
1.125
309
GRIDFORMAT_END
 95
        8
302
GRIDFORMAT
  1
GRIDFORMAT_BEGIN
 90
        0
 91
        1
 62
     0
 92
       -2
340
14
 93
        0
 40
1.125
309
GRIDFORMAT_END
 95
       16
302
GRIDFORMAT
  1
GRIDFORMAT_BEGIN
 90
        0
 91
        1
 62
     0
 92
       -2
340
14
 93
        0
 40
1.125
309
GRIDFORMAT_END
 95
       32
302
GRIDFORMAT
  1
GRIDFORMAT_BEGIN
 90
        0
 91
        1
 62
     0
 92
       -2
340
14
 93
        0
 40
1.125
309
GRIDFORMAT_END
309
TABLEFORMAT_END
  1
CELLSTYLE_BEGIN
 90
        2
 91
        1
300
_HEADER
309
CELLSTYLE_END
300
CELLSTYLE
  1
TABLEFORMAT_BEGIN
 90
        5
170
     1
 91
        0
 92
        0
 62
   257
 93
        1
300
CONTENTFORMAT
  1
CONTENTFORMAT_BEGIN
 90
        0
 91
        0
 92
      512
 93
        0
300

 40
0.0
140
1.0
 94
        2
 62
     0
340
11
144
4.5
309
CONTENTFORMAT_END
171
     1
301
MARGIN
  1
CELLMARGIN_BEGIN
 40
1.5
 40
1.5
 40
1.5
 40
1.5
 40
4.5
 40
4.5
309
CELLMARGIN_END
 94
        6
 95
        1
302
GRIDFORMAT
  1
GRIDFORMAT_BEGIN
 90
        0
 91
        1
 62
     0
 92
       -2
340
14
 93
        0
 40
1.125
309
GRIDFORMAT_END
 95
        2
302
GRIDFORMAT
  1
GRIDFORMAT_BEGIN
 90
        0
 91
        1
 62
     0
 92
       -2
340
14
 93
        0
 40
1.125
309
GRIDFORMAT_END
 95
        4
302
GRIDFORMAT
  1
GRIDFORMAT_BEGIN
 90
        0
 91
        1
 62
     0
 92
       -2
340
14
 93
        0
 40
1.125
309
GRIDFORMAT_END
 95
        8
302
GRIDFORMAT
  1
GRIDFORMAT_BEGIN
 90
        0
 91
        1
 62
     0
 92
       -2
340
14
 93
        0
 40
1.125
309
GRIDFORMAT_END
 95
       16
302
GRIDFORMAT
  1
GRIDFORMAT_BEGIN
 90
        0
 91
        1
 62
     0
 92
       -2
340
14
 93
        0
 40
1.125
309
GRIDFORMAT_END
 95
       32
302
GRIDFORMAT
  1
GRIDFORMAT_BEGIN
 90
        0
 91
        1
 62
     0
 92
       -2
340
14
 93
        0
 40
1.125
309
GRIDFORMAT_END
309
TABLEFORMAT_END
  1
CELLSTYLE_BEGIN
 90
        3
 91
        2
300
_DATA
309
CELLSTYLE_END
  0
XRECORD
  5
BA00
102
{ACAD_REACTORS
330
162
102
}
330
162
100
AcDbXrecord
280
     1
102
ACAD_ROUNDTRIP_PRE2007_TABLESTYLE
 90
      512
 91
        0
  1

 92
      512
 93
        0
  2

 94
      512
 95
        0
  3

  0
XRECORD
  5
BA13
102
{ACAD_REACTORS
330
BA12
102
}
330
BA12
100
AcDbXrecord
280
     1
102
RTVSPost2010Prop28
280
     1
102
RTVSPost2010PropOp28
 70
     1
102
RTVSPost2010Prop29
280
     1
102
RTVSPost2010PropOp29
 70
     1
102
RTVSPost2010Prop30
280
     0
102
RTVSPost2010PropOp30
 70
     1
102
RTVSPost2010Prop31
280
     0
102
RTVSPost2010PropOp31
 70
     1
102
RTVSPost2010Prop32
280
     0
102
RTVSPost2010PropOp32
 70
     1
102
RTVSPost2010Prop33
280
     0
102
RTVSPost2010PropOp33
 70
     1
102
RTVSPost2010Prop34
280
     0
102
RTVSPost2010PropOp34
 70
     1
102
RTVSPost2010Prop35
280
     0
102
RTVSPost2010PropOp35
 70
     1
102
RTVSPost2010Prop36
280
     0
102
RTVSPost2010PropOp36
 70
     1
102
RTVSPost2010Prop37
 90
       50
102
RTVSPost2010PropOp37
 70
     1
102
RTVSPost2010Prop38
140
0.0
102
RTVSPost2010PropOp38
 70
     1
102
RTVSPost2010Prop39
140
1.0
102
RTVSPost2010PropOp39
 70
     1
102
RTVSPost2010Prop40
 90
        0
102
RTVSPost2010PropOp40
 70
     1
102
RTVSPost2010Prop41ColorIndex
 90
       18
102
RTVSPost2010Prop41ColorRGB
 90
        0
102
RTVSPost2010PropOp41
 70
     1
102
RTVSPost2010Prop42
 90
       50
102
RTVSPost2010PropOp42
 70
     1
102
RTVSPost2010Prop43
 90
        3
102
RTVSPost2010PropOp43
 70
     1
102
RTVSPost2010Prop44ColorIndex
 90
        5
102
RTVSPost2010Prop44ColorRGB
 90
      255
102
RTVSPost2010PropOp44
 70
     1
102
RTVSPost2010Prop45
280
     0
102
RTVSPost2010PropOp45
 70
     1
102
RTVSPost2010Prop46
 90
       50
102
RTVSPost2010PropOp46
 70
     1
102
RTVSPost2010Prop47
 90
       50
102
RTVSPost2010PropOp47
 70
     1
102
RTVSPost2010Prop48
 90
       50
102
RTVSPost2010PropOp48
 70
     1
102
RTVSPost2010Prop49
280
     0
102
RTVSPost2010PropOp49
 70
     1
102
RTVSPost2010Prop50
 90
       50
102
RTVSPost2010PropOp50
 70
     1
102
RTVSPost2010Prop51ColorIndex
 90
      256
102
RTVSPost2010Prop51ColorRGB
 90
-16777216
102
RTVSPost2010PropOp51
 70
     0
102
RTVSPost2010Prop52
140
1.0
102
RTVSPost2010PropOp52
 70
     0
102
RTVSPost2010Prop53
 90
        2
102
RTVSPost2010PropOp53
 70
     1
102
RTVSPost2010Prop54
  1
strokes_ogs.tif
102
RTVSPost2010PropOp54
 70
     1
102
RTVSPost2010Prop55
280
     0
102
RTVSPost2010PropOp55
 70
     1
102
RTVSPost2010Prop56
140
1.0
102
RTVSPost2010PropOp56
 70
     1
102
RTVSPost2010Prop57
140
1.0
102
RTVSPost2010PropOp57
 70
     1
102
RTVSPropertyOp0
 70
     1
102
RTVSPropertyOp1
 70
     1
102
RTVSPropertyOp2
 70
     1
102
RTVSPropertyOp3
 70
     1
102
RTVSPropertyOp4
 70
     1
102
RTVSPropertyOp5
 70
     1
102
RTVSPropertyOp6
 70
     1
102
RTVSPropertyOp7
 70
     1
102
RTVSPropertyOp8
 70
     1
102
RTVSPropertyOp9
 70
     1
102
RTVSPropertyOp10
 70
     1
102
RTVSPropertyOp11
 70
     1
102
RTVSPropertyOp12
 70
     1
102
RTVSPropertyOp13
 70
     1
102
RTVSPropertyOp14
 70
     1
102
RTVSPropertyOp15
 70
     1
102
RTVSPropertyOp16
 70
     1
102
RTVSPropertyOp17
 70
     1
102
RTVSPropertyOp18
 70
     1
102
RTVSPropertyOp19
 70
     1
102
RTVSPropertyOp20
 70
     1
102
RTVSPropertyOp21
 70
     1
102
RTVSPropertyOp22
 70
     1
102
RTVSPropertyOp23
 70
     1
102
RTVSPropertyOp24
 70
     1
102
RTVSPropertyOp25
 70
     1
102
RTVSPropertyOp26
 70
     1
102
RTVSPropertyOp27
 70
     1
102
RTVSPropertyOp28
 70
     1
102
RTVSPropertyOp29
 70
     1
102
RTVSPropertyOp30
 70
     1
102
RTVSPropertyOp31
 70
     1
102
RTVSPropertyOp32
 70
     1
102
RTVSPropertyOp33
 70
     1
102
RTVSPropertyOp34
 70
     1
102
RTVSPropertyOp35
 70
     1
102
RTVSPropertyOp36
 70
     1
102
RTVSPropertyOp37
 70
     1
102
RTVSPropertyOp38
 70
     1
102
RTVSPropertyOp39
 70
     1
102
RTVSPropertyOp40
 70
     1
102
RTVSPropertyOp41
 70
     1
102
RTVSPropertyOp42
 70
     1
102
RTVSPropertyOp43
 70
     1
102
RTVSPropertyOp44
 70
     1
102
RTVSPropertyOp45
 70
     1
102
RTVSPropertyOp46
 70
     1
102
RTVSPropertyOp47
 70
     1
102
RTVSPropertyOp48
 70
     1
102
RTVSPropertyOp49
 70
     1
102
RTVSPropertyOp50
 70
     1
102
RTVSPropertyOp51
 70
     0
102
RTVSPropertyOp52
 70
     0
102
RTVSPropertyOp53
 70
     1
102
RTVSPropertyOp54
 70
     1
102
RTVSPropertyOp55
 70
     1
102
RTVSPropertyOp56
 70
     1
102
RTVSPropertyOp57
 70
     1
102
RTVSPropertyOp58
 70
     1
102
RTVSPropertyOp59
 70
     1
102
RTVSPropertyOp60
 70
     1
102
RTVSPropertyOp61
 70
     1
102
RTVSPropertyOp62
 70
     1
  0
XRECORD
  5
BA11
102
{ACAD_REACTORS
330
BA10
102
}
330
BA10
100
AcDbXrecord
280
     1
102
RTVSPost2010Prop28
280
     0
102
RTVSPost2010PropOp28
 70
     1
102
RTVSPost2010Prop29
280
     1
102
RTVSPost2010PropOp29
 70
     1
102
RTVSPost2010Prop30
280
     1
102
RTVSPost2010PropOp30
 70
     1
102
RTVSPost2010Prop31
280
     0
102
RTVSPost2010PropOp31
 70
     1
102
RTVSPost2010Prop32
280
     0
102
RTVSPost2010PropOp32
 70
     1
102
RTVSPost2010Prop33
280
     0
102
RTVSPost2010PropOp33
 70
     1
102
RTVSPost2010Prop34
280
     0
102
RTVSPost2010PropOp34
 70
     1
102
RTVSPost2010Prop35
280
     0
102
RTVSPost2010PropOp35
 70
     1
102
RTVSPost2010Prop36
280
     0
102
RTVSPost2010PropOp36
 70
     1
102
RTVSPost2010Prop37
 90
       50
102
RTVSPost2010PropOp37
 70
     1
102
RTVSPost2010Prop38
140
0.0
102
RTVSPost2010PropOp38
 70
     1
102
RTVSPost2010Prop39
140
1.0
102
RTVSPost2010PropOp39
 70
     1
102
RTVSPost2010Prop40
 90
        0
102
RTVSPost2010PropOp40
 70
     1
102
RTVSPost2010Prop41ColorIndex
 90
       18
102
RTVSPost2010Prop41ColorRGB
 90
        0
102
RTVSPost2010PropOp41
 70
     1
102
RTVSPost2010Prop42
 90
       50
102
RTVSPost2010PropOp42
 70
     1
102
RTVSPost2010Prop43
 90
        3
102
RTVSPost2010PropOp43
 70
     1
102
RTVSPost2010Prop44ColorIndex
 90
        5
102
RTVSPost2010Prop44ColorRGB
 90
      255
102
RTVSPost2010PropOp44
 70
     1
102
RTVSPost2010Prop45
280
     0
102
RTVSPost2010PropOp45
 70
     1
102
RTVSPost2010Prop46
 90
       50
102
RTVSPost2010PropOp46
 70
     1
102
RTVSPost2010Prop47
 90
       50
102
RTVSPost2010PropOp47
 70
     1
102
RTVSPost2010Prop48
 90
       50
102
RTVSPost2010PropOp48
 70
     1
102
RTVSPost2010Prop49
280
     0
102
RTVSPost2010PropOp49
 70
     1
102
RTVSPost2010Prop50
 90
       50
102
RTVSPost2010PropOp50
 70
     1
102
RTVSPost2010Prop51ColorIndex
 90
      256
102
RTVSPost2010Prop51ColorRGB
 90
-16777216
102
RTVSPost2010PropOp51
 70
     0
102
RTVSPost2010Prop52
140
1.0
102
RTVSPost2010PropOp52
 70
     0
102
RTVSPost2010Prop53
 90
        2
102
RTVSPost2010PropOp53
 70
     1
102
RTVSPost2010Prop54
  1
strokes_ogs.tif
102
RTVSPost2010PropOp54
 70
     1
102
RTVSPost2010Prop55
280
     0
102
RTVSPost2010PropOp55
 70
     1
102
RTVSPost2010Prop56
140
1.0
102
RTVSPost2010PropOp56
 70
     1
102
RTVSPost2010Prop57
140
1.0
102
RTVSPost2010PropOp57
 70
     1
102
RTVSPropertyOp0
 70
     1
102
RTVSPropertyOp1
 70
     1
102
RTVSPropertyOp2
 70
     1
102
RTVSPropertyOp3
 70
     1
102
RTVSPropertyOp4
 70
     1
102
RTVSPropertyOp5
 70
     1
102
RTVSPropertyOp6
 70
     1
102
RTVSPropertyOp7
 70
     1
102
RTVSPropertyOp8
 70
     1
102
RTVSPropertyOp9
 70
     1
102
RTVSPropertyOp10
 70
     1
102
RTVSPropertyOp11
 70
     1
102
RTVSPropertyOp12
 70
     1
102
RTVSPropertyOp13
 70
     1
102
RTVSPropertyOp14
 70
     1
102
RTVSPropertyOp15
 70
     1
102
RTVSPropertyOp16
 70
     1
102
RTVSPropertyOp17
 70
     1
102
RTVSPropertyOp18
 70
     1
102
RTVSPropertyOp19
 70
     1
102
RTVSPropertyOp20
 70
     1
102
RTVSPropertyOp21
 70
     1
102
RTVSPropertyOp22
 70
     1
102
RTVSPropertyOp23
 70
     1
102
RTVSPropertyOp24
 70
     1
102
RTVSPropertyOp25
 70
     1
102
RTVSPropertyOp26
 70
     1
102
RTVSPropertyOp27
 70
     1
102
RTVSPropertyOp28
 70
     1
102
RTVSPropertyOp29
 70
     1
102
RTVSPropertyOp30
 70
     1
102
RTVSPropertyOp31
 70
     1
102
RTVSPropertyOp32
 70
     1
102
RTVSPropertyOp33
 70
     1
102
RTVSPropertyOp34
 70
     1
102
RTVSPropertyOp35
 70
     1
102
RTVSPropertyOp36
 70
     1
102
RTVSPropertyOp37
 70
     1
102
RTVSPropertyOp38
 70
     1
102
RTVSPropertyOp39
 70
     1
102
RTVSPropertyOp40
 70
     1
102
RTVSPropertyOp41
 70
     1
102
RTVSPropertyOp42
 70
     1
102
RTVSPropertyOp43
 70
     1
102
RTVSPropertyOp44
 70
     1
102
RTVSPropertyOp45
 70
     1
102
RTVSPropertyOp46
 70
     1
102
RTVSPropertyOp47
 70
     1
102
RTVSPropertyOp48
 70
     1
102
RTVSPropertyOp49
 70
     1
102
RTVSPropertyOp50
 70
     1
102
RTVSPropertyOp51
 70
     0
102
RTVSPropertyOp52
 70
     0
102
RTVSPropertyOp53
 70
     1
102
RTVSPropertyOp54
 70
     1
102
RTVSPropertyOp55
 70
     1
102
RTVSPropertyOp56
 70
     1
102
RTVSPropertyOp57
 70
     1
102
RTVSPropertyOp58
 70
     1
102
RTVSPropertyOp59
 70
     1
102
RTVSPropertyOp60
 70
     1
102
RTVSPropertyOp61
 70
     1
102
RTVSPropertyOp62
 70
     1
  0
XRECORD
  5
BA1F
102
{ACAD_REACTORS
330
BA1E
102
}
330
BA1E
100
AcDbXrecord
280
     1
102
RTVSPost2010Prop28
280
     0
102
RTVSPost2010PropOp28
 70
     1
102
RTVSPost2010Prop29
280
     1
102
RTVSPost2010PropOp29
 70
     1
102
RTVSPost2010Prop30
280
     1
102
RTVSPost2010PropOp30
 70
     1
102
RTVSPost2010Prop31
280
     0
102
RTVSPost2010PropOp31
 70
     1
102
RTVSPost2010Prop32
280
     0
102
RTVSPost2010PropOp32
 70
     1
102
RTVSPost2010Prop33
280
     0
102
RTVSPost2010PropOp33
 70
     1
102
RTVSPost2010Prop34
280
     0
102
RTVSPost2010PropOp34
 70
     1
102
RTVSPost2010Prop35
280
     0
102
RTVSPost2010PropOp35
 70
     1
102
RTVSPost2010Prop36
280
     0
102
RTVSPost2010PropOp36
 70
     1
102
RTVSPost2010Prop37
 90
       50
102
RTVSPost2010PropOp37
 70
     1
102
RTVSPost2010Prop38
140
0.0
102
RTVSPost2010PropOp38
 70
     1
102
RTVSPost2010Prop39
140
1.0
102
RTVSPost2010PropOp39
 70
     1
102
RTVSPost2010Prop40
 90
        0
102
RTVSPost2010PropOp40
 70
     1
102
RTVSPost2010Prop41ColorIndex
 90
       18
102
RTVSPost2010Prop41ColorRGB
 90
        0
102
RTVSPost2010PropOp41
 70
     1
102
RTVSPost2010Prop42
 90
       50
102
RTVSPost2010PropOp42
 70
     1
102
RTVSPost2010Prop43
 90
        3
102
RTVSPost2010PropOp43
 70
     1
102
RTVSPost2010Prop44ColorIndex
 90
        5
102
RTVSPost2010Prop44ColorRGB
 90
      255
102
RTVSPost2010PropOp44
 70
     1
102
RTVSPost2010Prop45
280
     0
102
RTVSPost2010PropOp45
 70
     1
102
RTVSPost2010Prop46
 90
       50
102
RTVSPost2010PropOp46
 70
     1
102
RTVSPost2010Prop47
 90
       50
102
RTVSPost2010PropOp47
 70
     1
102
RTVSPost2010Prop48
 90
       50
102
RTVSPost2010PropOp48
 70
     1
102
RTVSPost2010Prop49
280
     0
102
RTVSPost2010PropOp49
 70
     1
102
RTVSPost2010Prop50
 90
       50
102
RTVSPost2010PropOp50
 70
     1
102
RTVSPost2010Prop51ColorIndex
 90
      256
102
RTVSPost2010Prop51ColorRGB
 90
-16777216
102
RTVSPost2010PropOp51
 70
     0
102
RTVSPost2010Prop52
140
1.0
102
RTVSPost2010PropOp52
 70
     0
102
RTVSPost2010Prop53
 90
        2
102
RTVSPost2010PropOp53
 70
     1
102
RTVSPost2010Prop54
  1
strokes_ogs.tif
102
RTVSPost2010PropOp54
 70
     1
102
RTVSPost2010Prop55
280
     0
102
RTVSPost2010PropOp55
 70
     1
102
RTVSPost2010Prop56
140
1.0
102
RTVSPost2010PropOp56
 70
     1
102
RTVSPost2010Prop57
140
1.0
102
RTVSPost2010PropOp57
 70
     1
102
RTVSPropertyOp0
 70
     1
102
RTVSPropertyOp1
 70
     1
102
RTVSPropertyOp2
 70
     1
102
RTVSPropertyOp3
 70
     1
102
RTVSPropertyOp4
 70
     1
102
RTVSPropertyOp5
 70
     1
102
RTVSPropertyOp6
 70
     1
102
RTVSPropertyOp7
 70
     1
102
RTVSPropertyOp8
 70
     1
102
RTVSPropertyOp9
 70
     1
102
RTVSPropertyOp10
 70
     1
102
RTVSPropertyOp11
 70
     1
102
RTVSPropertyOp12
 70
     1
102
RTVSPropertyOp13
 70
     1
102
RTVSPropertyOp14
 70
     1
102
RTVSPropertyOp15
 70
     1
102
RTVSPropertyOp16
 70
     1
102
RTVSPropertyOp17
 70
     1
102
RTVSPropertyOp18
 70
     1
102
RTVSPropertyOp19
 70
     1
102
RTVSPropertyOp20
 70
     1
102
RTVSPropertyOp21
 70
     1
102
RTVSPropertyOp22
 70
     1
102
RTVSPropertyOp23
 70
     1
102
RTVSPropertyOp24
 70
     1
102
RTVSPropertyOp25
 70
     1
102
RTVSPropertyOp26
 70
     1
102
RTVSPropertyOp27
 70
     1
102
RTVSPropertyOp28
 70
     1
102
RTVSPropertyOp29
 70
     1
102
RTVSPropertyOp30
 70
     1
102
RTVSPropertyOp31
 70
     1
102
RTVSPropertyOp32
 70
     1
102
RTVSPropertyOp33
 70
     1
102
RTVSPropertyOp34
 70
     1
102
RTVSPropertyOp35
 70
     1
102
RTVSPropertyOp36
 70
     1
102
RTVSPropertyOp37
 70
     1
102
RTVSPropertyOp38
 70
     1
102
RTVSPropertyOp39
 70
     1
102
RTVSPropertyOp40
 70
     1
102
RTVSPropertyOp41
 70
     1
102
RTVSPropertyOp42
 70
     1
102
RTVSPropertyOp43
 70
     1
102
RTVSPropertyOp44
 70
     1
102
RTVSPropertyOp45
 70
     1
102
RTVSPropertyOp46
 70
     1
102
RTVSPropertyOp47
 70
     1
102
RTVSPropertyOp48
 70
     1
102
RTVSPropertyOp49
 70
     1
102
RTVSPropertyOp50
 70
     1
102
RTVSPropertyOp51
 70
     0
102
RTVSPropertyOp52
 70
     0
102
RTVSPropertyOp53
 70
     1
102
RTVSPropertyOp54
 70
     1
102
RTVSPropertyOp55
 70
     1
102
RTVSPropertyOp56
 70
     1
102
RTVSPropertyOp57
 70
     1
102
RTVSPropertyOp58
 70
     1
102
RTVSPropertyOp59
 70
     1
102
RTVSPropertyOp60
 70
     1
102
RTVSPropertyOp61
 70
     1
102
RTVSPropertyOp62
 70
     1
  0
XRECORD
  5
BA27
102
{ACAD_REACTORS
330
BA26
102
}
330
BA26
100
AcDbXrecord
280
     1
102
RTVSPost2010Prop28
280
     0
102
RTVSPost2010PropOp28
 70
     1
102
RTVSPost2010Prop29
280
     1
102
RTVSPost2010PropOp29
 70
     1
102
RTVSPost2010Prop30
280
     1
102
RTVSPost2010PropOp30
 70
     1
102
RTVSPost2010Prop31
280
     0
102
RTVSPost2010PropOp31
 70
     1
102
RTVSPost2010Prop32
280
     0
102
RTVSPost2010PropOp32
 70
     1
102
RTVSPost2010Prop33
280
     0
102
RTVSPost2010PropOp33
 70
     1
102
RTVSPost2010Prop34
280
     0
102
RTVSPost2010PropOp34
 70
     1
102
RTVSPost2010Prop35
280
     0
102
RTVSPost2010PropOp35
 70
     1
102
RTVSPost2010Prop36
280
     0
102
RTVSPost2010PropOp36
 70
     1
102
RTVSPost2010Prop37
 90
       50
102
RTVSPost2010PropOp37
 70
     1
102
RTVSPost2010Prop38
140
0.0
102
RTVSPost2010PropOp38
 70
     1
102
RTVSPost2010Prop39
140
1.0
102
RTVSPost2010PropOp39
 70
     1
102
RTVSPost2010Prop40
 90
        0
102
RTVSPost2010PropOp40
 70
     1
102
RTVSPost2010Prop41ColorIndex
 90
       18
102
RTVSPost2010Prop41ColorRGB
 90
        0
102
RTVSPost2010PropOp41
 70
     1
102
RTVSPost2010Prop42
 90
       50
102
RTVSPost2010PropOp42
 70
     1
102
RTVSPost2010Prop43
 90
        3
102
RTVSPost2010PropOp43
 70
     1
102
RTVSPost2010Prop44ColorIndex
 90
        5
102
RTVSPost2010Prop44ColorRGB
 90
      255
102
RTVSPost2010PropOp44
 70
     1
102
RTVSPost2010Prop45
280
     0
102
RTVSPost2010PropOp45
 70
     1
102
RTVSPost2010Prop46
 90
       50
102
RTVSPost2010PropOp46
 70
     1
102
RTVSPost2010Prop47
 90
       50
102
RTVSPost2010PropOp47
 70
     1
102
RTVSPost2010Prop48
 90
       50
102
RTVSPost2010PropOp48
 70
     1
102
RTVSPost2010Prop49
280
     0
102
RTVSPost2010PropOp49
 70
     1
102
RTVSPost2010Prop50
 90
       50
102
RTVSPost2010PropOp50
 70
     1
102
RTVSPost2010Prop51ColorIndex
 90
      256
102
RTVSPost2010Prop51ColorRGB
 90
-16777216
102
RTVSPost2010PropOp51
 70
     0
102
RTVSPost2010Prop52
140
1.0
102
RTVSPost2010PropOp52
 70
     0
102
RTVSPost2010Prop53
 90
        2
102
RTVSPost2010PropOp53
 70
     1
102
RTVSPost2010Prop54
  1
strokes_ogs.tif
102
RTVSPost2010PropOp54
 70
     1
102
RTVSPost2010Prop55
280
     0
102
RTVSPost2010PropOp55
 70
     1
102
RTVSPost2010Prop56
140
1.0
102
RTVSPost2010PropOp56
 70
     1
102
RTVSPost2010Prop57
140
1.0
102
RTVSPost2010PropOp57
 70
     1
102
RTVSPropertyOp0
 70
     1
102
RTVSPropertyOp1
 70
     1
102
RTVSPropertyOp2
 70
     1
102
RTVSPropertyOp3
 70
     1
102
RTVSPropertyOp4
 70
     1
102
RTVSPropertyOp5
 70
     1
102
RTVSPropertyOp6
 70
     1
102
RTVSPropertyOp7
 70
     1
102
RTVSPropertyOp8
 70
     1
102
RTVSPropertyOp9
 70
     1
102
RTVSPropertyOp10
 70
     1
102
RTVSPropertyOp11
 70
     1
102
RTVSPropertyOp12
 70
     1
102
RTVSPropertyOp13
 70
     1
102
RTVSPropertyOp14
 70
     1
102
RTVSPropertyOp15
 70
     1
102
RTVSPropertyOp16
 70
     1
102
RTVSPropertyOp17
 70
     1
102
RTVSPropertyOp18
 70
     1
102
RTVSPropertyOp19
 70
     1
102
RTVSPropertyOp20
 70
     1
102
RTVSPropertyOp21
 70
     1
102
RTVSPropertyOp22
 70
     1
102
RTVSPropertyOp23
 70
     1
102
RTVSPropertyOp24
 70
     1
102
RTVSPropertyOp25
 70
     1
102
RTVSPropertyOp26
 70
     1
102
RTVSPropertyOp27
 70
     1
102
RTVSPropertyOp28
 70
     1
102
RTVSPropertyOp29
 70
     1
102
RTVSPropertyOp30
 70
     1
102
RTVSPropertyOp31
 70
     1
102
RTVSPropertyOp32
 70
     1
102
RTVSPropertyOp33
 70
     1
102
RTVSPropertyOp34
 70
     1
102
RTVSPropertyOp35
 70
     1
102
RTVSPropertyOp36
 70
     1
102
RTVSPropertyOp37
 70
     1
102
RTVSPropertyOp38
 70
     1
102
RTVSPropertyOp39
 70
     1
102
RTVSPropertyOp40
 70
     1
102
RTVSPropertyOp41
 70
     1
102
RTVSPropertyOp42
 70
     1
102
RTVSPropertyOp43
 70
     1
102
RTVSPropertyOp44
 70
     1
102
RTVSPropertyOp45
 70
     1
102
RTVSPropertyOp46
 70
     1
102
RTVSPropertyOp47
 70
     1
102
RTVSPropertyOp48
 70
     1
102
RTVSPropertyOp49
 70
     1
102
RTVSPropertyOp50
 70
     1
102
RTVSPropertyOp51
 70
     0
102
RTVSPropertyOp52
 70
     0
102
RTVSPropertyOp53
 70
     1
102
RTVSPropertyOp54
 70
     1
102
RTVSPropertyOp55
 70
     1
102
RTVSPropertyOp56
 70
     1
102
RTVSPropertyOp57
 70
     1
102
RTVSPropertyOp58
 70
     1
102
RTVSPropertyOp59
 70
     1
102
RTVSPropertyOp60
 70
     1
102
RTVSPropertyOp61
 70
     1
102
RTVSPropertyOp62
 70
     1
  0
XRECORD
  5
BA19
102
{ACAD_REACTORS
330
BA18
102
}
330
BA18
100
AcDbXrecord
280
     1
102
RTVSPost2010Prop28
280
     0
102
RTVSPost2010PropOp28
 70
     1
102
RTVSPost2010Prop29
280
     1
102
RTVSPost2010PropOp29
 70
     1
102
RTVSPost2010Prop30
280
     1
102
RTVSPost2010PropOp30
 70
     1
102
RTVSPost2010Prop31
280
     0
102
RTVSPost2010PropOp31
 70
     1
102
RTVSPost2010Prop32
280
     0
102
RTVSPost2010PropOp32
 70
     1
102
RTVSPost2010Prop33
280
     0
102
RTVSPost2010PropOp33
 70
     1
102
RTVSPost2010Prop34
280
     0
102
RTVSPost2010PropOp34
 70
     1
102
RTVSPost2010Prop35
280
     0
102
RTVSPost2010PropOp35
 70
     1
102
RTVSPost2010Prop36
280
     0
102
RTVSPost2010PropOp36
 70
     1
102
RTVSPost2010Prop37
 90
       50
102
RTVSPost2010PropOp37
 70
     1
102
RTVSPost2010Prop38
140
0.0
102
RTVSPost2010PropOp38
 70
     1
102
RTVSPost2010Prop39
140
1.0
102
RTVSPost2010PropOp39
 70
     1
102
RTVSPost2010Prop40
 90
        0
102
RTVSPost2010PropOp40
 70
     1
102
RTVSPost2010Prop41ColorIndex
 90
       18
102
RTVSPost2010Prop41ColorRGB
 90
        0
102
RTVSPost2010PropOp41
 70
     1
102
RTVSPost2010Prop42
 90
       50
102
RTVSPost2010PropOp42
 70
     1
102
RTVSPost2010Prop43
 90
        3
102
RTVSPost2010PropOp43
 70
     1
102
RTVSPost2010Prop44ColorIndex
 90
        5
102
RTVSPost2010Prop44ColorRGB
 90
      255
102
RTVSPost2010PropOp44
 70
     1
102
RTVSPost2010Prop45
280
     0
102
RTVSPost2010PropOp45
 70
     1
102
RTVSPost2010Prop46
 90
       50
102
RTVSPost2010PropOp46
 70
     1
102
RTVSPost2010Prop47
 90
       50
102
RTVSPost2010PropOp47
 70
     1
102
RTVSPost2010Prop48
 90
       50
102
RTVSPost2010PropOp48
 70
     1
102
RTVSPost2010Prop49
280
     0
102
RTVSPost2010PropOp49
 70
     1
102
RTVSPost2010Prop50
 90
       50
102
RTVSPost2010PropOp50
 70
     1
102
RTVSPost2010Prop51ColorIndex
 90
      256
102
RTVSPost2010Prop51ColorRGB
 90
-16777216
102
RTVSPost2010PropOp51
 70
     0
102
RTVSPost2010Prop52
140
1.0
102
RTVSPost2010PropOp52
 70
     0
102
RTVSPost2010Prop53
 90
        2
102
RTVSPost2010PropOp53
 70
     1
102
RTVSPost2010Prop54
  1
strokes_ogs.tif
102
RTVSPost2010PropOp54
 70
     1
102
RTVSPost2010Prop55
280
     0
102
RTVSPost2010PropOp55
 70
     1
102
RTVSPost2010Prop56
140
1.0
102
RTVSPost2010PropOp56
 70
     1
102
RTVSPost2010Prop57
140
1.0
102
RTVSPost2010PropOp57
 70
     1
102
RTVSPropertyOp0
 70
     1
102
RTVSPropertyOp1
 70
     1
102
RTVSPropertyOp2
 70
     1
102
RTVSPropertyOp3
 70
     1
102
RTVSPropertyOp4
 70
     1
102
RTVSPropertyOp5
 70
     1
102
RTVSPropertyOp6
 70
     1
102
RTVSPropertyOp7
 70
     1
102
RTVSPropertyOp8
 70
     1
102
RTVSPropertyOp9
 70
     1
102
RTVSPropertyOp10
 70
     1
102
RTVSPropertyOp11
 70
     1
102
RTVSPropertyOp12
 70
     1
102
RTVSPropertyOp13
 70
     1
102
RTVSPropertyOp14
 70
     1
102
RTVSPropertyOp15
 70
     1
102
RTVSPropertyOp16
 70
     1
102
RTVSPropertyOp17
 70
     1
102
RTVSPropertyOp18
 70
     1
102
RTVSPropertyOp19
 70
     1
102
RTVSPropertyOp20
 70
     1
102
RTVSPropertyOp21
 70
     1
102
RTVSPropertyOp22
 70
     1
102
RTVSPropertyOp23
 70
     1
102
RTVSPropertyOp24
 70
     1
102
RTVSPropertyOp25
 70
     1
102
RTVSPropertyOp26
 70
     1
102
RTVSPropertyOp27
 70
     1
102
RTVSPropertyOp28
 70
     1
102
RTVSPropertyOp29
 70
     1
102
RTVSPropertyOp30
 70
     1
102
RTVSPropertyOp31
 70
     1
102
RTVSPropertyOp32
 70
     1
102
RTVSPropertyOp33
 70
     1
102
RTVSPropertyOp34
 70
     1
102
RTVSPropertyOp35
 70
     1
102
RTVSPropertyOp36
 70
     1
102
RTVSPropertyOp37
 70
     1
102
RTVSPropertyOp38
 70
     1
102
RTVSPropertyOp39
 70
     1
102
RTVSPropertyOp40
 70
     1
102
RTVSPropertyOp41
 70
     1
102
RTVSPropertyOp42
 70
     1
102
RTVSPropertyOp43
 70
     1
102
RTVSPropertyOp44
 70
     1
102
RTVSPropertyOp45
 70
     1
102
RTVSPropertyOp46
 70
     1
102
RTVSPropertyOp47
 70
     1
102
RTVSPropertyOp48
 70
     1
102
RTVSPropertyOp49
 70
     1
102
RTVSPropertyOp50
 70
     1
102
RTVSPropertyOp51
 70
     0
102
RTVSPropertyOp52
 70
     0
102
RTVSPropertyOp53
 70
     1
102
RTVSPropertyOp54
 70
     1
102
RTVSPropertyOp55
 70
     1
102
RTVSPropertyOp56
 70
     1
102
RTVSPropertyOp57
 70
     1
102
RTVSPropertyOp58
 70
     1
102
RTVSPropertyOp59
 70
     1
102
RTVSPropertyOp60
 70
     1
102
RTVSPropertyOp61
 70
     1
102
RTVSPropertyOp62
 70
     1
  0
XRECORD
  5
BA1D
102
{ACAD_REACTORS
330
BA1C
102
}
330
BA1C
100
AcDbXrecord
280
     1
102
RTVSPost2010Prop28
280
     0
102
RTVSPost2010PropOp28
 70
     1
102
RTVSPost2010Prop29
280
     1
102
RTVSPost2010PropOp29
 70
     1
102
RTVSPost2010Prop30
280
     1
102
RTVSPost2010PropOp30
 70
     1
102
RTVSPost2010Prop31
280
     0
102
RTVSPost2010PropOp31
 70
     1
102
RTVSPost2010Prop32
280
     0
102
RTVSPost2010PropOp32
 70
     1
102
RTVSPost2010Prop33
280
     0
102
RTVSPost2010PropOp33
 70
     1
102
RTVSPost2010Prop34
280
     0
102
RTVSPost2010PropOp34
 70
     1
102
RTVSPost2010Prop35
280
     0
102
RTVSPost2010PropOp35
 70
     1
102
RTVSPost2010Prop36
280
     0
102
RTVSPost2010PropOp36
 70
     1
102
RTVSPost2010Prop37
 90
       50
102
RTVSPost2010PropOp37
 70
     1
102
RTVSPost2010Prop38
140
0.0
102
RTVSPost2010PropOp38
 70
     1
102
RTVSPost2010Prop39
140
1.0
102
RTVSPost2010PropOp39
 70
     1
102
RTVSPost2010Prop40
 90
        0
102
RTVSPost2010PropOp40
 70
     1
102
RTVSPost2010Prop41ColorIndex
 90
       18
102
RTVSPost2010Prop41ColorRGB
 90
        0
102
RTVSPost2010PropOp41
 70
     1
102
RTVSPost2010Prop42
 90
       50
102
RTVSPost2010PropOp42
 70
     1
102
RTVSPost2010Prop43
 90
        3
102
RTVSPost2010PropOp43
 70
     1
102
RTVSPost2010Prop44ColorIndex
 90
        5
102
RTVSPost2010Prop44ColorRGB
 90
      255
102
RTVSPost2010PropOp44
 70
     1
102
RTVSPost2010Prop45
280
     0
102
RTVSPost2010PropOp45
 70
     1
102
RTVSPost2010Prop46
 90
       50
102
RTVSPost2010PropOp46
 70
     1
102
RTVSPost2010Prop47
 90
       50
102
RTVSPost2010PropOp47
 70
     1
102
RTVSPost2010Prop48
 90
       50
102
RTVSPost2010PropOp48
 70
     1
102
RTVSPost2010Prop49
280
     0
102
RTVSPost2010PropOp49
 70
     1
102
RTVSPost2010Prop50
 90
       50
102
RTVSPost2010PropOp50
 70
     1
102
RTVSPost2010Prop51ColorIndex
 90
      256
102
RTVSPost2010Prop51ColorRGB
 90
-16777216
102
RTVSPost2010PropOp51
 70
     0
102
RTVSPost2010Prop52
140
1.0
102
RTVSPost2010PropOp52
 70
     0
102
RTVSPost2010Prop53
 90
        2
102
RTVSPost2010PropOp53
 70
     1
102
RTVSPost2010Prop54
  1
strokes_ogs.tif
102
RTVSPost2010PropOp54
 70
     1
102
RTVSPost2010Prop55
280
     0
102
RTVSPost2010PropOp55
 70
     1
102
RTVSPost2010Prop56
140
1.0
102
RTVSPost2010PropOp56
 70
     1
102
RTVSPost2010Prop57
140
1.0
102
RTVSPost2010PropOp57
 70
     1
102
RTVSPropertyOp0
 70
     1
102
RTVSPropertyOp1
 70
     1
102
RTVSPropertyOp2
 70
     1
102
RTVSPropertyOp3
 70
     1
102
RTVSPropertyOp4
 70
     1
102
RTVSPropertyOp5
 70
     1
102
RTVSPropertyOp6
 70
     1
102
RTVSPropertyOp7
 70
     1
102
RTVSPropertyOp8
 70
     1
102
RTVSPropertyOp9
 70
     1
102
RTVSPropertyOp10
 70
     1
102
RTVSPropertyOp11
 70
     1
102
RTVSPropertyOp12
 70
     1
102
RTVSPropertyOp13
 70
     1
102
RTVSPropertyOp14
 70
     1
102
RTVSPropertyOp15
 70
     1
102
RTVSPropertyOp16
 70
     1
102
RTVSPropertyOp17
 70
     1
102
RTVSPropertyOp18
 70
     1
102
RTVSPropertyOp19
 70
     1
102
RTVSPropertyOp20
 70
     1
102
RTVSPropertyOp21
 70
     1
102
RTVSPropertyOp22
 70
     1
102
RTVSPropertyOp23
 70
     1
102
RTVSPropertyOp24
 70
     1
102
RTVSPropertyOp25
 70
     1
102
RTVSPropertyOp26
 70
     1
102
RTVSPropertyOp27
 70
     1
102
RTVSPropertyOp28
 70
     1
102
RTVSPropertyOp29
 70
     1
102
RTVSPropertyOp30
 70
     1
102
RTVSPropertyOp31
 70
     1
102
RTVSPropertyOp32
 70
     1
102
RTVSPropertyOp33
 70
     1
102
RTVSPropertyOp34
 70
     1
102
RTVSPropertyOp35
 70
     1
102
RTVSPropertyOp36
 70
     1
102
RTVSPropertyOp37
 70
     1
102
RTVSPropertyOp38
 70
     1
102
RTVSPropertyOp39
 70
     1
102
RTVSPropertyOp40
 70
     1
102
RTVSPropertyOp41
 70
     1
102
RTVSPropertyOp42
 70
     1
102
RTVSPropertyOp43
 70
     1
102
RTVSPropertyOp44
 70
     1
102
RTVSPropertyOp45
 70
     1
102
RTVSPropertyOp46
 70
     1
102
RTVSPropertyOp47
 70
     1
102
RTVSPropertyOp48
 70
     1
102
RTVSPropertyOp49
 70
     1
102
RTVSPropertyOp50
 70
     1
102
RTVSPropertyOp51
 70
     0
102
RTVSPropertyOp52
 70
     0
102
RTVSPropertyOp53
 70
     1
102
RTVSPropertyOp54
 70
     1
102
RTVSPropertyOp55
 70
     1
102
RTVSPropertyOp56
 70
     1
102
RTVSPropertyOp57
 70
     1
102
RTVSPropertyOp58
 70
     1
102
RTVSPropertyOp59
 70
     1
102
RTVSPropertyOp60
 70
     1
102
RTVSPropertyOp61
 70
     1
102
RTVSPropertyOp62
 70
     1
  0
XRECORD
  5
BA2F
102
{ACAD_REACTORS
330
BA2E
102
}
330
BA2E
100
AcDbXrecord
280
     1
102
RTVSPost2010Prop28
280
     0
102
RTVSPost2010PropOp28
 70
     1
102
RTVSPost2010Prop29
280
     1
102
RTVSPost2010PropOp29
 70
     1
102
RTVSPost2010Prop30
280
     1
102
RTVSPost2010PropOp30
 70
     1
102
RTVSPost2010Prop31
280
     0
102
RTVSPost2010PropOp31
 70
     1
102
RTVSPost2010Prop32
280
     0
102
RTVSPost2010PropOp32
 70
     1
102
RTVSPost2010Prop33
280
     0
102
RTVSPost2010PropOp33
 70
     1
102
RTVSPost2010Prop34
280
     0
102
RTVSPost2010PropOp34
 70
     1
102
RTVSPost2010Prop35
280
     0
102
RTVSPost2010PropOp35
 70
     1
102
RTVSPost2010Prop36
280
     0
102
RTVSPost2010PropOp36
 70
     1
102
RTVSPost2010Prop37
 90
       50
102
RTVSPost2010PropOp37
 70
     1
102
RTVSPost2010Prop38
140
0.0
102
RTVSPost2010PropOp38
 70
     1
102
RTVSPost2010Prop39
140
1.0
102
RTVSPost2010PropOp39
 70
     1
102
RTVSPost2010Prop40
 90
        0
102
RTVSPost2010PropOp40
 70
     1
102
RTVSPost2010Prop41ColorIndex
 90
       18
102
RTVSPost2010Prop41ColorRGB
 90
        0
102
RTVSPost2010PropOp41
 70
     1
102
RTVSPost2010Prop42
 90
       50
102
RTVSPost2010PropOp42
 70
     1
102
RTVSPost2010Prop43
 90
        3
102
RTVSPost2010PropOp43
 70
     1
102
RTVSPost2010Prop44ColorIndex
 90
        5
102
RTVSPost2010Prop44ColorRGB
 90
      255
102
RTVSPost2010PropOp44
 70
     1
102
RTVSPost2010Prop45
280
     0
102
RTVSPost2010PropOp45
 70
     1
102
RTVSPost2010Prop46
 90
       50
102
RTVSPost2010PropOp46
 70
     1
102
RTVSPost2010Prop47
 90
       50
102
RTVSPost2010PropOp47
 70
     1
102
RTVSPost2010Prop48
 90
       50
102
RTVSPost2010PropOp48
 70
     1
102
RTVSPost2010Prop49
280
     0
102
RTVSPost2010PropOp49
 70
     1
102
RTVSPost2010Prop50
 90
       50
102
RTVSPost2010PropOp50
 70
     1
102
RTVSPost2010Prop51ColorIndex
 90
      256
102
RTVSPost2010Prop51ColorRGB
 90
-16777216
102
RTVSPost2010PropOp51
 70
     0
102
RTVSPost2010Prop52
140
1.0
102
RTVSPost2010PropOp52
 70
     0
102
RTVSPost2010Prop53
 90
        2
102
RTVSPost2010PropOp53
 70
     1
102
RTVSPost2010Prop54
  1
strokes_ogs.tif
102
RTVSPost2010PropOp54
 70
     1
102
RTVSPost2010Prop55
280
     0
102
RTVSPost2010PropOp55
 70
     1
102
RTVSPost2010Prop56
140
1.0
102
RTVSPost2010PropOp56
 70
     1
102
RTVSPost2010Prop57
140
1.0
102
RTVSPost2010PropOp57
 70
     1
102
RTVSPropertyOp0
 70
     0
102
RTVSPropertyOp1
 70
     0
102
RTVSPropertyOp2
 70
     0
102
RTVSPropertyOp3
 70
     0
102
RTVSPropertyOp4
 70
     0
102
RTVSPropertyOp5
 70
     0
102
RTVSPropertyOp6
 70
     0
102
RTVSPropertyOp7
 70
     0
102
RTVSPropertyOp8
 70
     0
102
RTVSPropertyOp9
 70
     0
102
RTVSPropertyOp10
 70
     0
102
RTVSPropertyOp11
 70
     0
102
RTVSPropertyOp12
 70
     0
102
RTVSPropertyOp13
 70
     0
102
RTVSPropertyOp14
 70
     2
102
RTVSPropertyOp15
 70
     0
102
RTVSPropertyOp16
 70
     0
102
RTVSPropertyOp17
 70
     0
102
RTVSPropertyOp18
 70
     0
102
RTVSPropertyOp19
 70
     0
102
RTVSPropertyOp20
 70
     0
102
RTVSPropertyOp21
 70
     0
102
RTVSPropertyOp22
 70
     0
102
RTVSPropertyOp23
 70
     0
102
RTVSPropertyOp24
 70
     0
102
RTVSPropertyOp25
 70
     0
102
RTVSPropertyOp26
 70
     0
102
RTVSPropertyOp27
 70
     0
102
RTVSPropertyOp28
 70
     1
102
RTVSPropertyOp29
 70
     1
102
RTVSPropertyOp30
 70
     1
102
RTVSPropertyOp31
 70
     1
102
RTVSPropertyOp32
 70
     1
102
RTVSPropertyOp33
 70
     1
102
RTVSPropertyOp34
 70
     1
102
RTVSPropertyOp35
 70
     1
102
RTVSPropertyOp36
 70
     1
102
RTVSPropertyOp37
 70
     1
102
RTVSPropertyOp38
 70
     1
102
RTVSPropertyOp39
 70
     1
102
RTVSPropertyOp40
 70
     1
102
RTVSPropertyOp41
 70
     1
102
RTVSPropertyOp42
 70
     1
102
RTVSPropertyOp43
 70
     1
102
RTVSPropertyOp44
 70
     1
102
RTVSPropertyOp45
 70
     1
102
RTVSPropertyOp46
 70
     1
102
RTVSPropertyOp47
 70
     1
102
RTVSPropertyOp48
 70
     1
102
RTVSPropertyOp49
 70
     1
102
RTVSPropertyOp50
 70
     1
102
RTVSPropertyOp51
 70
     0
102
RTVSPropertyOp52
 70
     0
102
RTVSPropertyOp53
 70
     1
102
RTVSPropertyOp54
 70
     1
102
RTVSPropertyOp55
 70
     1
102
RTVSPropertyOp56
 70
     1
102
RTVSPropertyOp57
 70
     1
102
RTVSPropertyOp58
 70
     1
102
RTVSPropertyOp59
 70
     1
102
RTVSPropertyOp60
 70
     1
102
RTVSPropertyOp61
 70
     1
102
RTVSPropertyOp62
 70
     1
  0
XRECORD
  5
BA25
102
{ACAD_REACTORS
330
BA24
102
}
330
BA24
100
AcDbXrecord
280
     1
102
RTVSPost2010Prop28
280
     0
102
RTVSPost2010PropOp28
 70
     1
102
RTVSPost2010Prop29
280
     1
102
RTVSPost2010PropOp29
 70
     1
102
RTVSPost2010Prop30
280
     1
102
RTVSPost2010PropOp30
 70
     1
102
RTVSPost2010Prop31
280
     0
102
RTVSPost2010PropOp31
 70
     1
102
RTVSPost2010Prop32
280
     0
102
RTVSPost2010PropOp32
 70
     1
102
RTVSPost2010Prop33
280
     0
102
RTVSPost2010PropOp33
 70
     1
102
RTVSPost2010Prop34
280
     0
102
RTVSPost2010PropOp34
 70
     1
102
RTVSPost2010Prop35
280
     0
102
RTVSPost2010PropOp35
 70
     1
102
RTVSPost2010Prop36
280
     0
102
RTVSPost2010PropOp36
 70
     1
102
RTVSPost2010Prop37
 90
       50
102
RTVSPost2010PropOp37
 70
     1
102
RTVSPost2010Prop38
140
0.0
102
RTVSPost2010PropOp38
 70
     1
102
RTVSPost2010Prop39
140
1.0
102
RTVSPost2010PropOp39
 70
     1
102
RTVSPost2010Prop40
 90
        0
102
RTVSPost2010PropOp40
 70
     1
102
RTVSPost2010Prop41ColorIndex
 90
       18
102
RTVSPost2010Prop41ColorRGB
 90
        0
102
RTVSPost2010PropOp41
 70
     1
102
RTVSPost2010Prop42
 90
       50
102
RTVSPost2010PropOp42
 70
     1
102
RTVSPost2010Prop43
 90
        3
102
RTVSPost2010PropOp43
 70
     1
102
RTVSPost2010Prop44ColorIndex
 90
        5
102
RTVSPost2010Prop44ColorRGB
 90
      255
102
RTVSPost2010PropOp44
 70
     1
102
RTVSPost2010Prop45
280
     0
102
RTVSPost2010PropOp45
 70
     1
102
RTVSPost2010Prop46
 90
       50
102
RTVSPost2010PropOp46
 70
     1
102
RTVSPost2010Prop47
 90
       50
102
RTVSPost2010PropOp47
 70
     1
102
RTVSPost2010Prop48
 90
       50
102
RTVSPost2010PropOp48
 70
     1
102
RTVSPost2010Prop49
280
     0
102
RTVSPost2010PropOp49
 70
     1
102
RTVSPost2010Prop50
 90
       50
102
RTVSPost2010PropOp50
 70
     1
102
RTVSPost2010Prop51ColorIndex
 90
      256
102
RTVSPost2010Prop51ColorRGB
 90
-16777216
102
RTVSPost2010PropOp51
 70
     0
102
RTVSPost2010Prop52
140
1.0
102
RTVSPost2010PropOp52
 70
     0
102
RTVSPost2010Prop53
 90
        2
102
RTVSPost2010PropOp53
 70
     1
102
RTVSPost2010Prop54
  1
strokes_ogs.tif
102
RTVSPost2010PropOp54
 70
     1
102
RTVSPost2010Prop55
280
     0
102
RTVSPost2010PropOp55
 70
     1
102
RTVSPost2010Prop56
140
1.0
102
RTVSPost2010PropOp56
 70
     1
102
RTVSPost2010Prop57
140
1.0
102
RTVSPost2010PropOp57
 70
     1
102
RTVSPropertyOp0
 70
     1
102
RTVSPropertyOp1
 70
     1
102
RTVSPropertyOp2
 70
     1
102
RTVSPropertyOp3
 70
     1
102
RTVSPropertyOp4
 70
     1
102
RTVSPropertyOp5
 70
     1
102
RTVSPropertyOp6
 70
     1
102
RTVSPropertyOp7
 70
     1
102
RTVSPropertyOp8
 70
     1
102
RTVSPropertyOp9
 70
     1
102
RTVSPropertyOp10
 70
     1
102
RTVSPropertyOp11
 70
     1
102
RTVSPropertyOp12
 70
     1
102
RTVSPropertyOp13
 70
     1
102
RTVSPropertyOp14
 70
     1
102
RTVSPropertyOp15
 70
     1
102
RTVSPropertyOp16
 70
     1
102
RTVSPropertyOp17
 70
     1
102
RTVSPropertyOp18
 70
     1
102
RTVSPropertyOp19
 70
     1
102
RTVSPropertyOp20
 70
     1
102
RTVSPropertyOp21
 70
     1
102
RTVSPropertyOp22
 70
     1
102
RTVSPropertyOp23
 70
     1
102
RTVSPropertyOp24
 70
     1
102
RTVSPropertyOp25
 70
     1
102
RTVSPropertyOp26
 70
     1
102
RTVSPropertyOp27
 70
     1
102
RTVSPropertyOp28
 70
     1
102
RTVSPropertyOp29
 70
     1
102
RTVSPropertyOp30
 70
     1
102
RTVSPropertyOp31
 70
     1
102
RTVSPropertyOp32
 70
     1
102
RTVSPropertyOp33
 70
     1
102
RTVSPropertyOp34
 70
     1
102
RTVSPropertyOp35
 70
     1
102
RTVSPropertyOp36
 70
     1
102
RTVSPropertyOp37
 70
     1
102
RTVSPropertyOp38
 70
     1
102
RTVSPropertyOp39
 70
     1
102
RTVSPropertyOp40
 70
     1
102
RTVSPropertyOp41
 70
     1
102
RTVSPropertyOp42
 70
     1
102
RTVSPropertyOp43
 70
     1
102
RTVSPropertyOp44
 70
     1
102
RTVSPropertyOp45
 70
     1
102
RTVSPropertyOp46
 70
     1
102
RTVSPropertyOp47
 70
     1
102
RTVSPropertyOp48
 70
     1
102
RTVSPropertyOp49
 70
     1
102
RTVSPropertyOp50
 70
     1
102
RTVSPropertyOp51
 70
     0
102
RTVSPropertyOp52
 70
     0
102
RTVSPropertyOp53
 70
     1
102
RTVSPropertyOp54
 70
     1
102
RTVSPropertyOp55
 70
     1
102
RTVSPropertyOp56
 70
     1
102
RTVSPropertyOp57
 70
     1
102
RTVSPropertyOp58
 70
     1
102
RTVSPropertyOp59
 70
     1
102
RTVSPropertyOp60
 70
     1
102
RTVSPropertyOp61
 70
     1
102
RTVSPropertyOp62
 70
     1
  0
XRECORD
  5
BA09
102
{ACAD_REACTORS
330
BA08
102
}
330
BA08
100
AcDbXrecord
280
     1
102
RTVSPost2010Prop28
280
     0
102
RTVSPost2010PropOp28
 70
     1
102
RTVSPost2010Prop29
280
     1
102
RTVSPost2010PropOp29
 70
     1
102
RTVSPost2010Prop30
280
     1
102
RTVSPost2010PropOp30
 70
     1
102
RTVSPost2010Prop31
280
     0
102
RTVSPost2010PropOp31
 70
     1
102
RTVSPost2010Prop32
280
     0
102
RTVSPost2010PropOp32
 70
     1
102
RTVSPost2010Prop33
280
     0
102
RTVSPost2010PropOp33
 70
     1
102
RTVSPost2010Prop34
280
     0
102
RTVSPost2010PropOp34
 70
     1
102
RTVSPost2010Prop35
280
     0
102
RTVSPost2010PropOp35
 70
     1
102
RTVSPost2010Prop36
280
     0
102
RTVSPost2010PropOp36
 70
     1
102
RTVSPost2010Prop37
 90
       50
102
RTVSPost2010PropOp37
 70
     1
102
RTVSPost2010Prop38
140
0.0
102
RTVSPost2010PropOp38
 70
     1
102
RTVSPost2010Prop39
140
1.0
102
RTVSPost2010PropOp39
 70
     1
102
RTVSPost2010Prop40
 90
        0
102
RTVSPost2010PropOp40
 70
     1
102
RTVSPost2010Prop41ColorIndex
 90
       18
102
RTVSPost2010Prop41ColorRGB
 90
        0
102
RTVSPost2010PropOp41
 70
     1
102
RTVSPost2010Prop42
 90
       50
102
RTVSPost2010PropOp42
 70
     1
102
RTVSPost2010Prop43
 90
        3
102
RTVSPost2010PropOp43
 70
     1
102
RTVSPost2010Prop44ColorIndex
 90
        5
102
RTVSPost2010Prop44ColorRGB
 90
      255
102
RTVSPost2010PropOp44
 70
     1
102
RTVSPost2010Prop45
280
     0
102
RTVSPost2010PropOp45
 70
     1
102
RTVSPost2010Prop46
 90
       50
102
RTVSPost2010PropOp46
 70
     1
102
RTVSPost2010Prop47
 90
       50
102
RTVSPost2010PropOp47
 70
     1
102
RTVSPost2010Prop48
 90
       50
102
RTVSPost2010PropOp48
 70
     1
102
RTVSPost2010Prop49
280
     0
102
RTVSPost2010PropOp49
 70
     1
102
RTVSPost2010Prop50
 90
       50
102
RTVSPost2010PropOp50
 70
     1
102
RTVSPost2010Prop51ColorIndex
 90
      256
102
RTVSPost2010Prop51ColorRGB
 90
-16777216
102
RTVSPost2010PropOp51
 70
     0
102
RTVSPost2010Prop52
140
1.0
102
RTVSPost2010PropOp52
 70
     0
102
RTVSPost2010Prop53
 90
        2
102
RTVSPost2010PropOp53
 70
     1
102
RTVSPost2010Prop54
  1
strokes_ogs.tif
102
RTVSPost2010PropOp54
 70
     1
102
RTVSPost2010Prop55
280
     0
102
RTVSPost2010PropOp55
 70
     1
102
RTVSPost2010Prop56
140
1.0
102
RTVSPost2010PropOp56
 70
     1
102
RTVSPost2010Prop57
140
1.0
102
RTVSPost2010PropOp57
 70
     1
102
RTVSPropertyOp0
 70
     1
102
RTVSPropertyOp1
 70
     1
102
RTVSPropertyOp2
 70
     1
102
RTVSPropertyOp3
 70
     1
102
RTVSPropertyOp4
 70
     1
102
RTVSPropertyOp5
 70
     1
102
RTVSPropertyOp6
 70
     1
102
RTVSPropertyOp7
 70
     1
102
RTVSPropertyOp8
 70
     1
102
RTVSPropertyOp9
 70
     1
102
RTVSPropertyOp10
 70
     1
102
RTVSPropertyOp11
 70
     1
102
RTVSPropertyOp12
 70
     1
102
RTVSPropertyOp13
 70
     1
102
RTVSPropertyOp14
 70
     1
102
RTVSPropertyOp15
 70
     1
102
RTVSPropertyOp16
 70
     1
102
RTVSPropertyOp17
 70
     1
102
RTVSPropertyOp18
 70
     1
102
RTVSPropertyOp19
 70
     1
102
RTVSPropertyOp20
 70
     1
102
RTVSPropertyOp21
 70
     1
102
RTVSPropertyOp22
 70
     1
102
RTVSPropertyOp23
 70
     1
102
RTVSPropertyOp24
 70
     1
102
RTVSPropertyOp25
 70
     1
102
RTVSPropertyOp26
 70
     1
102
RTVSPropertyOp27
 70
     1
102
RTVSPropertyOp28
 70
     1
102
RTVSPropertyOp29
 70
     1
102
RTVSPropertyOp30
 70
     1
102
RTVSPropertyOp31
 70
     1
102
RTVSPropertyOp32
 70
     1
102
RTVSPropertyOp33
 70
     1
102
RTVSPropertyOp34
 70
     1
102
RTVSPropertyOp35
 70
     1
102
RTVSPropertyOp36
 70
     1
102
RTVSPropertyOp37
 70
     1
102
RTVSPropertyOp38
 70
     1
102
RTVSPropertyOp39
 70
     1
102
RTVSPropertyOp40
 70
     1
102
RTVSPropertyOp41
 70
     1
102
RTVSPropertyOp42
 70
     1
102
RTVSPropertyOp43
 70
     1
102
RTVSPropertyOp44
 70
     1
102
RTVSPropertyOp45
 70
     1
102
RTVSPropertyOp46
 70
     1
102
RTVSPropertyOp47
 70
     1
102
RTVSPropertyOp48
 70
     1
102
RTVSPropertyOp49
 70
     1
102
RTVSPropertyOp50
 70
     1
102
RTVSPropertyOp51
 70
     0
102
RTVSPropertyOp52
 70
     0
102
RTVSPropertyOp53
 70
     1
102
RTVSPropertyOp54
 70
     1
102
RTVSPropertyOp55
 70
     1
102
RTVSPropertyOp56
 70
     1
102
RTVSPropertyOp57
 70
     1
102
RTVSPropertyOp58
 70
     1
102
RTVSPropertyOp59
 70
     1
102
RTVSPropertyOp60
 70
     1
102
RTVSPropertyOp61
 70
     1
102
RTVSPropertyOp62
 70
     1
  0
XRECORD
  5
BA0B
102
{ACAD_REACTORS
330
BA0A
102
}
330
BA0A
100
AcDbXrecord
280
     1
102
RTVSPost2010Prop28
280
     0
102
RTVSPost2010PropOp28
 70
     1
102
RTVSPost2010Prop29
280
     1
102
RTVSPost2010PropOp29
 70
     1
102
RTVSPost2010Prop30
280
     1
102
RTVSPost2010PropOp30
 70
     1
102
RTVSPost2010Prop31
280
     0
102
RTVSPost2010PropOp31
 70
     1
102
RTVSPost2010Prop32
280
     0
102
RTVSPost2010PropOp32
 70
     1
102
RTVSPost2010Prop33
280
     0
102
RTVSPost2010PropOp33
 70
     1
102
RTVSPost2010Prop34
280
     0
102
RTVSPost2010PropOp34
 70
     1
102
RTVSPost2010Prop35
280
     0
102
RTVSPost2010PropOp35
 70
     1
102
RTVSPost2010Prop36
280
     0
102
RTVSPost2010PropOp36
 70
     1
102
RTVSPost2010Prop37
 90
       50
102
RTVSPost2010PropOp37
 70
     1
102
RTVSPost2010Prop38
140
0.0
102
RTVSPost2010PropOp38
 70
     1
102
RTVSPost2010Prop39
140
1.0
102
RTVSPost2010PropOp39
 70
     1
102
RTVSPost2010Prop40
 90
        0
102
RTVSPost2010PropOp40
 70
     1
102
RTVSPost2010Prop41ColorIndex
 90
       18
102
RTVSPost2010Prop41ColorRGB
 90
        0
102
RTVSPost2010PropOp41
 70
     1
102
RTVSPost2010Prop42
 90
       50
102
RTVSPost2010PropOp42
 70
     1
102
RTVSPost2010Prop43
 90
        3
102
RTVSPost2010PropOp43
 70
     1
102
RTVSPost2010Prop44ColorIndex
 90
        5
102
RTVSPost2010Prop44ColorRGB
 90
      255
102
RTVSPost2010PropOp44
 70
     1
102
RTVSPost2010Prop45
280
     0
102
RTVSPost2010PropOp45
 70
     1
102
RTVSPost2010Prop46
 90
       50
102
RTVSPost2010PropOp46
 70
     1
102
RTVSPost2010Prop47
 90
       50
102
RTVSPost2010PropOp47
 70
     1
102
RTVSPost2010Prop48
 90
       50
102
RTVSPost2010PropOp48
 70
     1
102
RTVSPost2010Prop49
280
     0
102
RTVSPost2010PropOp49
 70
     1
102
RTVSPost2010Prop50
 90
       50
102
RTVSPost2010PropOp50
 70
     1
102
RTVSPost2010Prop51ColorIndex
 90
      256
102
RTVSPost2010Prop51ColorRGB
 90
-16777216
102
RTVSPost2010PropOp51
 70
     0
102
RTVSPost2010Prop52
140
1.0
102
RTVSPost2010PropOp52
 70
     0
102
RTVSPost2010Prop53
 90
        2
102
RTVSPost2010PropOp53
 70
     1
102
RTVSPost2010Prop54
  1
strokes_ogs.tif
102
RTVSPost2010PropOp54
 70
     1
102
RTVSPost2010Prop55
280
     0
102
RTVSPost2010PropOp55
 70
     1
102
RTVSPost2010Prop56
140
1.0
102
RTVSPost2010PropOp56
 70
     1
102
RTVSPost2010Prop57
140
1.0
102
RTVSPost2010PropOp57
 70
     1
102
RTVSPropertyOp0
 70
     1
102
RTVSPropertyOp1
 70
     1
102
RTVSPropertyOp2
 70
     1
102
RTVSPropertyOp3
 70
     1
102
RTVSPropertyOp4
 70
     1
102
RTVSPropertyOp5
 70
     1
102
RTVSPropertyOp6
 70
     1
102
RTVSPropertyOp7
 70
     1
102
RTVSPropertyOp8
 70
     1
102
RTVSPropertyOp9
 70
     1
102
RTVSPropertyOp10
 70
     1
102
RTVSPropertyOp11
 70
     1
102
RTVSPropertyOp12
 70
     1
102
RTVSPropertyOp13
 70
     1
102
RTVSPropertyOp14
 70
     1
102
RTVSPropertyOp15
 70
     1
102
RTVSPropertyOp16
 70
     1
102
RTVSPropertyOp17
 70
     1
102
RTVSPropertyOp18
 70
     1
102
RTVSPropertyOp19
 70
     1
102
RTVSPropertyOp20
 70
     1
102
RTVSPropertyOp21
 70
     1
102
RTVSPropertyOp22
 70
     1
102
RTVSPropertyOp23
 70
     1
102
RTVSPropertyOp24
 70
     1
102
RTVSPropertyOp25
 70
     1
102
RTVSPropertyOp26
 70
     1
102
RTVSPropertyOp27
 70
     1
102
RTVSPropertyOp28
 70
     1
102
RTVSPropertyOp29
 70
     1
102
RTVSPropertyOp30
 70
     1
102
RTVSPropertyOp31
 70
     1
102
RTVSPropertyOp32
 70
     1
102
RTVSPropertyOp33
 70
     1
102
RTVSPropertyOp34
 70
     1
102
RTVSPropertyOp35
 70
     1
102
RTVSPropertyOp36
 70
     1
102
RTVSPropertyOp37
 70
     1
102
RTVSPropertyOp38
 70
     1
102
RTVSPropertyOp39
 70
     1
102
RTVSPropertyOp40
 70
     1
102
RTVSPropertyOp41
 70
     1
102
RTVSPropertyOp42
 70
     1
102
RTVSPropertyOp43
 70
     1
102
RTVSPropertyOp44
 70
     1
102
RTVSPropertyOp45
 70
     1
102
RTVSPropertyOp46
 70
     1
102
RTVSPropertyOp47
 70
     1
102
RTVSPropertyOp48
 70
     1
102
RTVSPropertyOp49
 70
     1
102
RTVSPropertyOp50
 70
     1
102
RTVSPropertyOp51
 70
     0
102
RTVSPropertyOp52
 70
     0
102
RTVSPropertyOp53
 70
     1
102
RTVSPropertyOp54
 70
     1
102
RTVSPropertyOp55
 70
     1
102
RTVSPropertyOp56
 70
     1
102
RTVSPropertyOp57
 70
     1
102
RTVSPropertyOp58
 70
     1
102
RTVSPropertyOp59
 70
     1
102
RTVSPropertyOp60
 70
     1
102
RTVSPropertyOp61
 70
     1
102
RTVSPropertyOp62
 70
     1
  0
XRECORD
  5
BA0D
102
{ACAD_REACTORS
330
BA0C
102
}
330
BA0C
100
AcDbXrecord
280
     1
102
RTVSPost2010Prop28
280
     0
102
RTVSPost2010PropOp28
 70
     1
102
RTVSPost2010Prop29
280
     1
102
RTVSPost2010PropOp29
 70
     1
102
RTVSPost2010Prop30
280
     1
102
RTVSPost2010PropOp30
 70
     1
102
RTVSPost2010Prop31
280
     0
102
RTVSPost2010PropOp31
 70
     1
102
RTVSPost2010Prop32
280
     0
102
RTVSPost2010PropOp32
 70
     1
102
RTVSPost2010Prop33
280
     0
102
RTVSPost2010PropOp33
 70
     1
102
RTVSPost2010Prop34
280
     0
102
RTVSPost2010PropOp34
 70
     1
102
RTVSPost2010Prop35
280
     0
102
RTVSPost2010PropOp35
 70
     1
102
RTVSPost2010Prop36
280
     0
102
RTVSPost2010PropOp36
 70
     1
102
RTVSPost2010Prop37
 90
       50
102
RTVSPost2010PropOp37
 70
     1
102
RTVSPost2010Prop38
140
0.0
102
RTVSPost2010PropOp38
 70
     1
102
RTVSPost2010Prop39
140
1.0
102
RTVSPost2010PropOp39
 70
     1
102
RTVSPost2010Prop40
 90
        0
102
RTVSPost2010PropOp40
 70
     1
102
RTVSPost2010Prop41ColorIndex
 90
       18
102
RTVSPost2010Prop41ColorRGB
 90
        0
102
RTVSPost2010PropOp41
 70
     1
102
RTVSPost2010Prop42
 90
       50
102
RTVSPost2010PropOp42
 70
     1
102
RTVSPost2010Prop43
 90
        3
102
RTVSPost2010PropOp43
 70
     1
102
RTVSPost2010Prop44ColorIndex
 90
        5
102
RTVSPost2010Prop44ColorRGB
 90
      255
102
RTVSPost2010PropOp44
 70
     1
102
RTVSPost2010Prop45
280
     0
102
RTVSPost2010PropOp45
 70
     1
102
RTVSPost2010Prop46
 90
       50
102
RTVSPost2010PropOp46
 70
     1
102
RTVSPost2010Prop47
 90
       50
102
RTVSPost2010PropOp47
 70
     1
102
RTVSPost2010Prop48
 90
       50
102
RTVSPost2010PropOp48
 70
     1
102
RTVSPost2010Prop49
280
     0
102
RTVSPost2010PropOp49
 70
     1
102
RTVSPost2010Prop50
 90
       50
102
RTVSPost2010PropOp50
 70
     1
102
RTVSPost2010Prop51ColorIndex
 90
      256
102
RTVSPost2010Prop51ColorRGB
 90
-16777216
102
RTVSPost2010PropOp51
 70
     0
102
RTVSPost2010Prop52
140
1.0
102
RTVSPost2010PropOp52
 70
     0
102
RTVSPost2010Prop53
 90
        2
102
RTVSPost2010PropOp53
 70
     1
102
RTVSPost2010Prop54
  1
strokes_ogs.tif
102
RTVSPost2010PropOp54
 70
     1
102
RTVSPost2010Prop55
280
     0
102
RTVSPost2010PropOp55
 70
     1
102
RTVSPost2010Prop56
140
1.0
102
RTVSPost2010PropOp56
 70
     1
102
RTVSPost2010Prop57
140
1.0
102
RTVSPost2010PropOp57
 70
     1
102
RTVSPropertyOp0
 70
     1
102
RTVSPropertyOp1
 70
     1
102
RTVSPropertyOp2
 70
     1
102
RTVSPropertyOp3
 70
     1
102
RTVSPropertyOp4
 70
     1
102
RTVSPropertyOp5
 70
     1
102
RTVSPropertyOp6
 70
     1
102
RTVSPropertyOp7
 70
     1
102
RTVSPropertyOp8
 70
     1
102
RTVSPropertyOp9
 70
     1
102
RTVSPropertyOp10
 70
     1
102
RTVSPropertyOp11
 70
     1
102
RTVSPropertyOp12
 70
     1
102
RTVSPropertyOp13
 70
     1
102
RTVSPropertyOp14
 70
     1
102
RTVSPropertyOp15
 70
     1
102
RTVSPropertyOp16
 70
     1
102
RTVSPropertyOp17
 70
     1
102
RTVSPropertyOp18
 70
     1
102
RTVSPropertyOp19
 70
     1
102
RTVSPropertyOp20
 70
     1
102
RTVSPropertyOp21
 70
     1
102
RTVSPropertyOp22
 70
     1
102
RTVSPropertyOp23
 70
     1
102
RTVSPropertyOp24
 70
     1
102
RTVSPropertyOp25
 70
     1
102
RTVSPropertyOp26
 70
     1
102
RTVSPropertyOp27
 70
     1
102
RTVSPropertyOp28
 70
     1
102
RTVSPropertyOp29
 70
     1
102
RTVSPropertyOp30
 70
     1
102
RTVSPropertyOp31
 70
     1
102
RTVSPropertyOp32
 70
     1
102
RTVSPropertyOp33
 70
     1
102
RTVSPropertyOp34
 70
     1
102
RTVSPropertyOp35
 70
     1
102
RTVSPropertyOp36
 70
     1
102
RTVSPropertyOp37
 70
     1
102
RTVSPropertyOp38
 70
     1
102
RTVSPropertyOp39
 70
     1
102
RTVSPropertyOp40
 70
     1
102
RTVSPropertyOp41
 70
     1
102
RTVSPropertyOp42
 70
     1
102
RTVSPropertyOp43
 70
     1
102
RTVSPropertyOp44
 70
     1
102
RTVSPropertyOp45
 70
     1
102
RTVSPropertyOp46
 70
     1
102
RTVSPropertyOp47
 70
     1
102
RTVSPropertyOp48
 70
     1
102
RTVSPropertyOp49
 70
     1
102
RTVSPropertyOp50
 70
     1
102
RTVSPropertyOp51
 70
     0
102
RTVSPropertyOp52
 70
     0
102
RTVSPropertyOp53
 70
     1
102
RTVSPropertyOp54
 70
     1
102
RTVSPropertyOp55
 70
     1
102
RTVSPropertyOp56
 70
     1
102
RTVSPropertyOp57
 70
     1
102
RTVSPropertyOp58
 70
     1
102
RTVSPropertyOp59
 70
     1
102
RTVSPropertyOp60
 70
     1
102
RTVSPropertyOp61
 70
     1
102
RTVSPropertyOp62
 70
     1
  0
XRECORD
  5
BA0F
102
{ACAD_REACTORS
330
BA0E
102
}
330
BA0E
100
AcDbXrecord
280
     1
102
RTVSPost2010Prop28
280
     0
102
RTVSPost2010PropOp28
 70
     1
102
RTVSPost2010Prop29
280
     1
102
RTVSPost2010PropOp29
 70
     1
102
RTVSPost2010Prop30
280
     1
102
RTVSPost2010PropOp30
 70
     1
102
RTVSPost2010Prop31
280
     0
102
RTVSPost2010PropOp31
 70
     1
102
RTVSPost2010Prop32
280
     0
102
RTVSPost2010PropOp32
 70
     1
102
RTVSPost2010Prop33
280
     0
102
RTVSPost2010PropOp33
 70
     1
102
RTVSPost2010Prop34
280
     0
102
RTVSPost2010PropOp34
 70
     1
102
RTVSPost2010Prop35
280
     0
102
RTVSPost2010PropOp35
 70
     1
102
RTVSPost2010Prop36
280
     0
102
RTVSPost2010PropOp36
 70
     1
102
RTVSPost2010Prop37
 90
       50
102
RTVSPost2010PropOp37
 70
     1
102
RTVSPost2010Prop38
140
0.0
102
RTVSPost2010PropOp38
 70
     1
102
RTVSPost2010Prop39
140
1.0
102
RTVSPost2010PropOp39
 70
     1
102
RTVSPost2010Prop40
 90
        0
102
RTVSPost2010PropOp40
 70
     1
102
RTVSPost2010Prop41ColorIndex
 90
       18
102
RTVSPost2010Prop41ColorRGB
 90
        0
102
RTVSPost2010PropOp41
 70
     1
102
RTVSPost2010Prop42
 90
       50
102
RTVSPost2010PropOp42
 70
     1
102
RTVSPost2010Prop43
 90
        3
102
RTVSPost2010PropOp43
 70
     1
102
RTVSPost2010Prop44ColorIndex
 90
        5
102
RTVSPost2010Prop44ColorRGB
 90
      255
102
RTVSPost2010PropOp44
 70
     1
102
RTVSPost2010Prop45
280
     0
102
RTVSPost2010PropOp45
 70
     1
102
RTVSPost2010Prop46
 90
       50
102
RTVSPost2010PropOp46
 70
     1
102
RTVSPost2010Prop47
 90
       50
102
RTVSPost2010PropOp47
 70
     1
102
RTVSPost2010Prop48
 90
       50
102
RTVSPost2010PropOp48
 70
     1
102
RTVSPost2010Prop49
280
     0
102
RTVSPost2010PropOp49
 70
     1
102
RTVSPost2010Prop50
 90
       50
102
RTVSPost2010PropOp50
 70
     1
102
RTVSPost2010Prop51ColorIndex
 90
      256
102
RTVSPost2010Prop51ColorRGB
 90
-16777216
102
RTVSPost2010PropOp51
 70
     0
102
RTVSPost2010Prop52
140
1.0
102
RTVSPost2010PropOp52
 70
     0
102
RTVSPost2010Prop53
 90
        2
102
RTVSPost2010PropOp53
 70
     1
102
RTVSPost2010Prop54
  1
strokes_ogs.tif
102
RTVSPost2010PropOp54
 70
     1
102
RTVSPost2010Prop55
280
     0
102
RTVSPost2010PropOp55
 70
     1
102
RTVSPost2010Prop56
140
1.0
102
RTVSPost2010PropOp56
 70
     1
102
RTVSPost2010Prop57
140
1.0
102
RTVSPost2010PropOp57
 70
     1
102
RTVSPropertyOp0
 70
     1
102
RTVSPropertyOp1
 70
     1
102
RTVSPropertyOp2
 70
     1
102
RTVSPropertyOp3
 70
     1
102
RTVSPropertyOp4
 70
     1
102
RTVSPropertyOp5
 70
     1
102
RTVSPropertyOp6
 70
     1
102
RTVSPropertyOp7
 70
     1
102
RTVSPropertyOp8
 70
     1
102
RTVSPropertyOp9
 70
     1
102
RTVSPropertyOp10
 70
     1
102
RTVSPropertyOp11
 70
     1
102
RTVSPropertyOp12
 70
     1
102
RTVSPropertyOp13
 70
     1
102
RTVSPropertyOp14
 70
     1
102
RTVSPropertyOp15
 70
     1
102
RTVSPropertyOp16
 70
     1
102
RTVSPropertyOp17
 70
     1
102
RTVSPropertyOp18
 70
     1
102
RTVSPropertyOp19
 70
     1
102
RTVSPropertyOp20
 70
     1
102
RTVSPropertyOp21
 70
     1
102
RTVSPropertyOp22
 70
     1
102
RTVSPropertyOp23
 70
     1
102
RTVSPropertyOp24
 70
     1
102
RTVSPropertyOp25
 70
     1
102
RTVSPropertyOp26
 70
     1
102
RTVSPropertyOp27
 70
     1
102
RTVSPropertyOp28
 70
     1
102
RTVSPropertyOp29
 70
     1
102
RTVSPropertyOp30
 70
     1
102
RTVSPropertyOp31
 70
     1
102
RTVSPropertyOp32
 70
     1
102
RTVSPropertyOp33
 70
     1
102
RTVSPropertyOp34
 70
     1
102
RTVSPropertyOp35
 70
     1
102
RTVSPropertyOp36
 70
     1
102
RTVSPropertyOp37
 70
     1
102
RTVSPropertyOp38
 70
     1
102
RTVSPropertyOp39
 70
     1
102
RTVSPropertyOp40
 70
     1
102
RTVSPropertyOp41
 70
     1
102
RTVSPropertyOp42
 70
     1
102
RTVSPropertyOp43
 70
     1
102
RTVSPropertyOp44
 70
     1
102
RTVSPropertyOp45
 70
     1
102
RTVSPropertyOp46
 70
     1
102
RTVSPropertyOp47
 70
     1
102
RTVSPropertyOp48
 70
     1
102
RTVSPropertyOp49
 70
     1
102
RTVSPropertyOp50
 70
     1
102
RTVSPropertyOp51
 70
     0
102
RTVSPropertyOp52
 70
     0
102
RTVSPropertyOp53
 70
     1
102
RTVSPropertyOp54
 70
     1
102
RTVSPropertyOp55
 70
     1
102
RTVSPropertyOp56
 70
     1
102
RTVSPropertyOp57
 70
     1
102
RTVSPropertyOp58
 70
     1
102
RTVSPropertyOp59
 70
     1
102
RTVSPropertyOp60
 70
     1
102
RTVSPropertyOp61
 70
     1
102
RTVSPropertyOp62
 70
     1
  0
XRECORD
  5
BA17
102
{ACAD_REACTORS
330
BA16
102
}
330
BA16
100
AcDbXrecord
280
     1
102
RTVSPost2010Prop28
280
     0
102
RTVSPost2010PropOp28
 70
     1
102
RTVSPost2010Prop29
280
     1
102
RTVSPost2010PropOp29
 70
     1
102
RTVSPost2010Prop30
280
     1
102
RTVSPost2010PropOp30
 70
     1
102
RTVSPost2010Prop31
280
     0
102
RTVSPost2010PropOp31
 70
     1
102
RTVSPost2010Prop32
280
     0
102
RTVSPost2010PropOp32
 70
     1
102
RTVSPost2010Prop33
280
     0
102
RTVSPost2010PropOp33
 70
     1
102
RTVSPost2010Prop34
280
     0
102
RTVSPost2010PropOp34
 70
     1
102
RTVSPost2010Prop35
280
     0
102
RTVSPost2010PropOp35
 70
     1
102
RTVSPost2010Prop36
280
     0
102
RTVSPost2010PropOp36
 70
     1
102
RTVSPost2010Prop37
 90
       50
102
RTVSPost2010PropOp37
 70
     1
102
RTVSPost2010Prop38
140
0.0
102
RTVSPost2010PropOp38
 70
     1
102
RTVSPost2010Prop39
140
1.0
102
RTVSPost2010PropOp39
 70
     1
102
RTVSPost2010Prop40
 90
        0
102
RTVSPost2010PropOp40
 70
     1
102
RTVSPost2010Prop41ColorIndex
 90
       18
102
RTVSPost2010Prop41ColorRGB
 90
        0
102
RTVSPost2010PropOp41
 70
     1
102
RTVSPost2010Prop42
 90
       50
102
RTVSPost2010PropOp42
 70
     1
102
RTVSPost2010Prop43
 90
        3
102
RTVSPost2010PropOp43
 70
     1
102
RTVSPost2010Prop44ColorIndex
 90
        5
102
RTVSPost2010Prop44ColorRGB
 90
      255
102
RTVSPost2010PropOp44
 70
     1
102
RTVSPost2010Prop45
280
     0
102
RTVSPost2010PropOp45
 70
     1
102
RTVSPost2010Prop46
 90
       50
102
RTVSPost2010PropOp46
 70
     1
102
RTVSPost2010Prop47
 90
       50
102
RTVSPost2010PropOp47
 70
     1
102
RTVSPost2010Prop48
 90
       50
102
RTVSPost2010PropOp48
 70
     1
102
RTVSPost2010Prop49
280
     0
102
RTVSPost2010PropOp49
 70
     1
102
RTVSPost2010Prop50
 90
       50
102
RTVSPost2010PropOp50
 70
     1
102
RTVSPost2010Prop51ColorIndex
 90
      256
102
RTVSPost2010Prop51ColorRGB
 90
-16777216
102
RTVSPost2010PropOp51
 70
     0
102
RTVSPost2010Prop52
140
1.0
102
RTVSPost2010PropOp52
 70
     0
102
RTVSPost2010Prop53
 90
        2
102
RTVSPost2010PropOp53
 70
     1
102
RTVSPost2010Prop54
  1
strokes_ogs.tif
102
RTVSPost2010PropOp54
 70
     1
102
RTVSPost2010Prop55
280
     0
102
RTVSPost2010PropOp55
 70
     1
102
RTVSPost2010Prop56
140
1.0
102
RTVSPost2010PropOp56
 70
     1
102
RTVSPost2010Prop57
140
1.0
102
RTVSPost2010PropOp57
 70
     1
102
RTVSPropertyOp0
 70
     1
102
RTVSPropertyOp1
 70
     1
102
RTVSPropertyOp2
 70
     1
102
RTVSPropertyOp3
 70
     1
102
RTVSPropertyOp4
 70
     1
102
RTVSPropertyOp5
 70
     1
102
RTVSPropertyOp6
 70
     1
102
RTVSPropertyOp7
 70
     1
102
RTVSPropertyOp8
 70
     1
102
RTVSPropertyOp9
 70
     1
102
RTVSPropertyOp10
 70
     1
102
RTVSPropertyOp11
 70
     1
102
RTVSPropertyOp12
 70
     1
102
RTVSPropertyOp13
 70
     1
102
RTVSPropertyOp14
 70
     1
102
RTVSPropertyOp15
 70
     1
102
RTVSPropertyOp16
 70
     1
102
RTVSPropertyOp17
 70
     1
102
RTVSPropertyOp18
 70
     1
102
RTVSPropertyOp19
 70
     1
102
RTVSPropertyOp20
 70
     1
102
RTVSPropertyOp21
 70
     1
102
RTVSPropertyOp22
 70
     1
102
RTVSPropertyOp23
 70
     1
102
RTVSPropertyOp24
 70
     1
102
RTVSPropertyOp25
 70
     1
102
RTVSPropertyOp26
 70
     1
102
RTVSPropertyOp27
 70
     1
102
RTVSPropertyOp28
 70
     1
102
RTVSPropertyOp29
 70
     1
102
RTVSPropertyOp30
 70
     1
102
RTVSPropertyOp31
 70
     1
102
RTVSPropertyOp32
 70
     1
102
RTVSPropertyOp33
 70
     1
102
RTVSPropertyOp34
 70
     1
102
RTVSPropertyOp35
 70
     1
102
RTVSPropertyOp36
 70
     1
102
RTVSPropertyOp37
 70
     1
102
RTVSPropertyOp38
 70
     1
102
RTVSPropertyOp39
 70
     1
102
RTVSPropertyOp40
 70
     1
102
RTVSPropertyOp41
 70
     1
102
RTVSPropertyOp42
 70
     1
102
RTVSPropertyOp43
 70
     1
102
RTVSPropertyOp44
 70
     1
102
RTVSPropertyOp45
 70
     1
102
RTVSPropertyOp46
 70
     1
102
RTVSPropertyOp47
 70
     1
102
RTVSPropertyOp48
 70
     1
102
RTVSPropertyOp49
 70
     1
102
RTVSPropertyOp50
 70
     1
102
RTVSPropertyOp51
 70
     0
102
RTVSPropertyOp52
 70
     0
102
RTVSPropertyOp53
 70
     1
102
RTVSPropertyOp54
 70
     1
102
RTVSPropertyOp55
 70
     1
102
RTVSPropertyOp56
 70
     1
102
RTVSPropertyOp57
 70
     1
102
RTVSPropertyOp58
 70
     1
102
RTVSPropertyOp59
 70
     1
102
RTVSPropertyOp60
 70
     1
102
RTVSPropertyOp61
 70
     1
102
RTVSPropertyOp62
 70
     1
  0
XRECORD
  5
BA2B
102
{ACAD_REACTORS
330
BA2A
102
}
330
BA2A
100
AcDbXrecord
280
     1
102
RTVSPost2010Prop28
280
     0
102
RTVSPost2010PropOp28
 70
     1
102
RTVSPost2010Prop29
280
     1
102
RTVSPost2010PropOp29
 70
     1
102
RTVSPost2010Prop30
280
     1
102
RTVSPost2010PropOp30
 70
     1
102
RTVSPost2010Prop31
280
     0
102
RTVSPost2010PropOp31
 70
     1
102
RTVSPost2010Prop32
280
     0
102
RTVSPost2010PropOp32
 70
     1
102
RTVSPost2010Prop33
280
     0
102
RTVSPost2010PropOp33
 70
     1
102
RTVSPost2010Prop34
280
     0
102
RTVSPost2010PropOp34
 70
     1
102
RTVSPost2010Prop35
280
     0
102
RTVSPost2010PropOp35
 70
     1
102
RTVSPost2010Prop36
280
     0
102
RTVSPost2010PropOp36
 70
     1
102
RTVSPost2010Prop37
 90
       50
102
RTVSPost2010PropOp37
 70
     1
102
RTVSPost2010Prop38
140
0.0
102
RTVSPost2010PropOp38
 70
     1
102
RTVSPost2010Prop39
140
1.0
102
RTVSPost2010PropOp39
 70
     1
102
RTVSPost2010Prop40
 90
        0
102
RTVSPost2010PropOp40
 70
     1
102
RTVSPost2010Prop41ColorIndex
 90
       18
102
RTVSPost2010Prop41ColorRGB
 90
        0
102
RTVSPost2010PropOp41
 70
     1
102
RTVSPost2010Prop42
 90
       50
102
RTVSPost2010PropOp42
 70
     1
102
RTVSPost2010Prop43
 90
        3
102
RTVSPost2010PropOp43
 70
     1
102
RTVSPost2010Prop44ColorIndex
 90
        5
102
RTVSPost2010Prop44ColorRGB
 90
      255
102
RTVSPost2010PropOp44
 70
     1
102
RTVSPost2010Prop45
280
     0
102
RTVSPost2010PropOp45
 70
     1
102
RTVSPost2010Prop46
 90
       50
102
RTVSPost2010PropOp46
 70
     1
102
RTVSPost2010Prop47
 90
       50
102
RTVSPost2010PropOp47
 70
     1
102
RTVSPost2010Prop48
 90
       50
102
RTVSPost2010PropOp48
 70
     1
102
RTVSPost2010Prop49
280
     0
102
RTVSPost2010PropOp49
 70
     1
102
RTVSPost2010Prop50
 90
       50
102
RTVSPost2010PropOp50
 70
     1
102
RTVSPost2010Prop51ColorIndex
 90
      256
102
RTVSPost2010Prop51ColorRGB
 90
-16777216
102
RTVSPost2010PropOp51
 70
     0
102
RTVSPost2010Prop52
140
1.0
102
RTVSPost2010PropOp52
 70
     0
102
RTVSPost2010Prop53
 90
        2
102
RTVSPost2010PropOp53
 70
     1
102
RTVSPost2010Prop54
  1
strokes_ogs.tif
102
RTVSPost2010PropOp54
 70
     1
102
RTVSPost2010Prop55
280
     0
102
RTVSPost2010PropOp55
 70
     1
102
RTVSPost2010Prop56
140
1.0
102
RTVSPost2010PropOp56
 70
     1
102
RTVSPost2010Prop57
140
1.0
102
RTVSPost2010PropOp57
 70
     1
102
RTVSPropertyOp0
 70
     0
102
RTVSPropertyOp1
 70
     0
102
RTVSPropertyOp2
 70
     0
102
RTVSPropertyOp3
 70
     0
102
RTVSPropertyOp4
 70
     0
102
RTVSPropertyOp5
 70
     0
102
RTVSPropertyOp6
 70
     0
102
RTVSPropertyOp7
 70
     0
102
RTVSPropertyOp8
 70
     0
102
RTVSPropertyOp9
 70
     0
102
RTVSPropertyOp10
 70
     0
102
RTVSPropertyOp11
 70
     0
102
RTVSPropertyOp12
 70
     0
102
RTVSPropertyOp13
 70
     0
102
RTVSPropertyOp14
 70
     2
102
RTVSPropertyOp15
 70
     0
102
RTVSPropertyOp16
 70
     0
102
RTVSPropertyOp17
 70
     0
102
RTVSPropertyOp18
 70
     0
102
RTVSPropertyOp19
 70
     0
102
RTVSPropertyOp20
 70
     0
102
RTVSPropertyOp21
 70
     0
102
RTVSPropertyOp22
 70
     0
102
RTVSPropertyOp23
 70
     0
102
RTVSPropertyOp24
 70
     0
102
RTVSPropertyOp25
 70
     0
102
RTVSPropertyOp26
 70
     0
102
RTVSPropertyOp27
 70
     0
102
RTVSPropertyOp28
 70
     1
102
RTVSPropertyOp29
 70
     1
102
RTVSPropertyOp30
 70
     1
102
RTVSPropertyOp31
 70
     1
102
RTVSPropertyOp32
 70
     1
102
RTVSPropertyOp33
 70
     1
102
RTVSPropertyOp34
 70
     1
102
RTVSPropertyOp35
 70
     1
102
RTVSPropertyOp36
 70
     1
102
RTVSPropertyOp37
 70
     1
102
RTVSPropertyOp38
 70
     1
102
RTVSPropertyOp39
 70
     1
102
RTVSPropertyOp40
 70
     1
102
RTVSPropertyOp41
 70
     1
102
RTVSPropertyOp42
 70
     1
102
RTVSPropertyOp43
 70
     1
102
RTVSPropertyOp44
 70
     1
102
RTVSPropertyOp45
 70
     1
102
RTVSPropertyOp46
 70
     1
102
RTVSPropertyOp47
 70
     1
102
RTVSPropertyOp48
 70
     1
102
RTVSPropertyOp49
 70
     1
102
RTVSPropertyOp50
 70
     1
102
RTVSPropertyOp51
 70
     0
102
RTVSPropertyOp52
 70
     0
102
RTVSPropertyOp53
 70
     1
102
RTVSPropertyOp54
 70
     1
102
RTVSPropertyOp55
 70
     1
102
RTVSPropertyOp56
 70
     1
102
RTVSPropertyOp57
 70
     1
102
RTVSPropertyOp58
 70
     1
102
RTVSPropertyOp59
 70
     1
102
RTVSPropertyOp60
 70
     1
102
RTVSPropertyOp61
 70
     1
102
RTVSPropertyOp62
 70
     1
  0
XRECORD
  5
BA23
102
{ACAD_REACTORS
330
BA22
102
}
330
BA22
100
AcDbXrecord
280
     1
102
RTVSPost2010Prop28
280
     0
102
RTVSPost2010PropOp28
 70
     1
102
RTVSPost2010Prop29
280
     1
102
RTVSPost2010PropOp29
 70
     1
102
RTVSPost2010Prop30
280
     1
102
RTVSPost2010PropOp30
 70
     1
102
RTVSPost2010Prop31
280
     0
102
RTVSPost2010PropOp31
 70
     1
102
RTVSPost2010Prop32
280
     0
102
RTVSPost2010PropOp32
 70
     1
102
RTVSPost2010Prop33
280
     0
102
RTVSPost2010PropOp33
 70
     1
102
RTVSPost2010Prop34
280
     0
102
RTVSPost2010PropOp34
 70
     1
102
RTVSPost2010Prop35
280
     0
102
RTVSPost2010PropOp35
 70
     1
102
RTVSPost2010Prop36
280
     0
102
RTVSPost2010PropOp36
 70
     1
102
RTVSPost2010Prop37
 90
       50
102
RTVSPost2010PropOp37
 70
     1
102
RTVSPost2010Prop38
140
0.0
102
RTVSPost2010PropOp38
 70
     1
102
RTVSPost2010Prop39
140
1.0
102
RTVSPost2010PropOp39
 70
     1
102
RTVSPost2010Prop40
 90
        0
102
RTVSPost2010PropOp40
 70
     1
102
RTVSPost2010Prop41ColorIndex
 90
       18
102
RTVSPost2010Prop41ColorRGB
 90
        0
102
RTVSPost2010PropOp41
 70
     1
102
RTVSPost2010Prop42
 90
       50
102
RTVSPost2010PropOp42
 70
     1
102
RTVSPost2010Prop43
 90
        3
102
RTVSPost2010PropOp43
 70
     1
102
RTVSPost2010Prop44ColorIndex
 90
        5
102
RTVSPost2010Prop44ColorRGB
 90
      255
102
RTVSPost2010PropOp44
 70
     1
102
RTVSPost2010Prop45
280
     0
102
RTVSPost2010PropOp45
 70
     1
102
RTVSPost2010Prop46
 90
       50
102
RTVSPost2010PropOp46
 70
     1
102
RTVSPost2010Prop47
 90
       50
102
RTVSPost2010PropOp47
 70
     1
102
RTVSPost2010Prop48
 90
       50
102
RTVSPost2010PropOp48
 70
     1
102
RTVSPost2010Prop49
280
     0
102
RTVSPost2010PropOp49
 70
     1
102
RTVSPost2010Prop50
 90
       50
102
RTVSPost2010PropOp50
 70
     1
102
RTVSPost2010Prop51ColorIndex
 90
      256
102
RTVSPost2010Prop51ColorRGB
 90
-16777216
102
RTVSPost2010PropOp51
 70
     0
102
RTVSPost2010Prop52
140
1.0
102
RTVSPost2010PropOp52
 70
     0
102
RTVSPost2010Prop53
 90
        2
102
RTVSPost2010PropOp53
 70
     1
102
RTVSPost2010Prop54
  1
strokes_ogs.tif
102
RTVSPost2010PropOp54
 70
     1
102
RTVSPost2010Prop55
280
     0
102
RTVSPost2010PropOp55
 70
     1
102
RTVSPost2010Prop56
140
1.0
102
RTVSPost2010PropOp56
 70
     1
102
RTVSPost2010Prop57
140
1.0
102
RTVSPost2010PropOp57
 70
     1
102
RTVSPropertyOp0
 70
     1
102
RTVSPropertyOp1
 70
     1
102
RTVSPropertyOp2
 70
     1
102
RTVSPropertyOp3
 70
     1
102
RTVSPropertyOp4
 70
     1
102
RTVSPropertyOp5
 70
     1
102
RTVSPropertyOp6
 70
     1
102
RTVSPropertyOp7
 70
     1
102
RTVSPropertyOp8
 70
     1
102
RTVSPropertyOp9
 70
     1
102
RTVSPropertyOp10
 70
     1
102
RTVSPropertyOp11
 70
     1
102
RTVSPropertyOp12
 70
     1
102
RTVSPropertyOp13
 70
     1
102
RTVSPropertyOp14
 70
     1
102
RTVSPropertyOp15
 70
     1
102
RTVSPropertyOp16
 70
     1
102
RTVSPropertyOp17
 70
     1
102
RTVSPropertyOp18
 70
     1
102
RTVSPropertyOp19
 70
     1
102
RTVSPropertyOp20
 70
     1
102
RTVSPropertyOp21
 70
     1
102
RTVSPropertyOp22
 70
     1
102
RTVSPropertyOp23
 70
     1
102
RTVSPropertyOp24
 70
     1
102
RTVSPropertyOp25
 70
     1
102
RTVSPropertyOp26
 70
     1
102
RTVSPropertyOp27
 70
     1
102
RTVSPropertyOp28
 70
     1
102
RTVSPropertyOp29
 70
     1
102
RTVSPropertyOp30
 70
     1
102
RTVSPropertyOp31
 70
     1
102
RTVSPropertyOp32
 70
     1
102
RTVSPropertyOp33
 70
     1
102
RTVSPropertyOp34
 70
     1
102
RTVSPropertyOp35
 70
     1
102
RTVSPropertyOp36
 70
     1
102
RTVSPropertyOp37
 70
     1
102
RTVSPropertyOp38
 70
     1
102
RTVSPropertyOp39
 70
     1
102
RTVSPropertyOp40
 70
     1
102
RTVSPropertyOp41
 70
     1
102
RTVSPropertyOp42
 70
     1
102
RTVSPropertyOp43
 70
     1
102
RTVSPropertyOp44
 70
     1
102
RTVSPropertyOp45
 70
     1
102
RTVSPropertyOp46
 70
     1
102
RTVSPropertyOp47
 70
     1
102
RTVSPropertyOp48
 70
     1
102
RTVSPropertyOp49
 70
     1
102
RTVSPropertyOp50
 70
     1
102
RTVSPropertyOp51
 70
     0
102
RTVSPropertyOp52
 70
     0
102
RTVSPropertyOp53
 70
     1
102
RTVSPropertyOp54
 70
     1
102
RTVSPropertyOp55
 70
     1
102
RTVSPropertyOp56
 70
     1
102
RTVSPropertyOp57
 70
     1
102
RTVSPropertyOp58
 70
     1
102
RTVSPropertyOp59
 70
     1
102
RTVSPropertyOp60
 70
     1
102
RTVSPropertyOp61
 70
     1
102
RTVSPropertyOp62
 70
     1
  0
XRECORD
  5
BA2D
102
{ACAD_REACTORS
330
BA2C
102
}
330
BA2C
100
AcDbXrecord
280
     1
102
RTVSPost2010Prop28
280
     0
102
RTVSPost2010PropOp28
 70
     1
102
RTVSPost2010Prop29
280
     1
102
RTVSPost2010PropOp29
 70
     1
102
RTVSPost2010Prop30
280
     1
102
RTVSPost2010PropOp30
 70
     1
102
RTVSPost2010Prop31
280
     0
102
RTVSPost2010PropOp31
 70
     1
102
RTVSPost2010Prop32
280
     0
102
RTVSPost2010PropOp32
 70
     1
102
RTVSPost2010Prop33
280
     0
102
RTVSPost2010PropOp33
 70
     1
102
RTVSPost2010Prop34
280
     0
102
RTVSPost2010PropOp34
 70
     1
102
RTVSPost2010Prop35
280
     0
102
RTVSPost2010PropOp35
 70
     1
102
RTVSPost2010Prop36
280
     0
102
RTVSPost2010PropOp36
 70
     1
102
RTVSPost2010Prop37
 90
       50
102
RTVSPost2010PropOp37
 70
     1
102
RTVSPost2010Prop38
140
0.0
102
RTVSPost2010PropOp38
 70
     1
102
RTVSPost2010Prop39
140
1.0
102
RTVSPost2010PropOp39
 70
     1
102
RTVSPost2010Prop40
 90
        0
102
RTVSPost2010PropOp40
 70
     1
102
RTVSPost2010Prop41ColorIndex
 90
       18
102
RTVSPost2010Prop41ColorRGB
 90
        0
102
RTVSPost2010PropOp41
 70
     1
102
RTVSPost2010Prop42
 90
       50
102
RTVSPost2010PropOp42
 70
     1
102
RTVSPost2010Prop43
 90
        3
102
RTVSPost2010PropOp43
 70
     1
102
RTVSPost2010Prop44ColorIndex
 90
        5
102
RTVSPost2010Prop44ColorRGB
 90
      255
102
RTVSPost2010PropOp44
 70
     1
102
RTVSPost2010Prop45
280
     0
102
RTVSPost2010PropOp45
 70
     1
102
RTVSPost2010Prop46
 90
       50
102
RTVSPost2010PropOp46
 70
     1
102
RTVSPost2010Prop47
 90
       50
102
RTVSPost2010PropOp47
 70
     1
102
RTVSPost2010Prop48
 90
       50
102
RTVSPost2010PropOp48
 70
     1
102
RTVSPost2010Prop49
280
     0
102
RTVSPost2010PropOp49
 70
     1
102
RTVSPost2010Prop50
 90
       50
102
RTVSPost2010PropOp50
 70
     1
102
RTVSPost2010Prop51ColorIndex
 90
      256
102
RTVSPost2010Prop51ColorRGB
 90
-16777216
102
RTVSPost2010PropOp51
 70
     0
102
RTVSPost2010Prop52
140
1.0
102
RTVSPost2010PropOp52
 70
     0
102
RTVSPost2010Prop53
 90
        2
102
RTVSPost2010PropOp53
 70
     1
102
RTVSPost2010Prop54
  1
strokes_ogs.tif
102
RTVSPost2010PropOp54
 70
     1
102
RTVSPost2010Prop55
280
     0
102
RTVSPost2010PropOp55
 70
     1
102
RTVSPost2010Prop56
140
1.0
102
RTVSPost2010PropOp56
 70
     1
102
RTVSPost2010Prop57
140
1.0
102
RTVSPost2010PropOp57
 70
     1
102
RTVSPropertyOp0
 70
     0
102
RTVSPropertyOp1
 70
     0
102
RTVSPropertyOp2
 70
     0
102
RTVSPropertyOp3
 70
     0
102
RTVSPropertyOp4
 70
     0
102
RTVSPropertyOp5
 70
     0
102
RTVSPropertyOp6
 70
     0
102
RTVSPropertyOp7
 70
     0
102
RTVSPropertyOp8
 70
     0
102
RTVSPropertyOp9
 70
     0
102
RTVSPropertyOp10
 70
     0
102
RTVSPropertyOp11
 70
     0
102
RTVSPropertyOp12
 70
     0
102
RTVSPropertyOp13
 70
     0
102
RTVSPropertyOp14
 70
     2
102
RTVSPropertyOp15
 70
     0
102
RTVSPropertyOp16
 70
     0
102
RTVSPropertyOp17
 70
     0
102
RTVSPropertyOp18
 70
     0
102
RTVSPropertyOp19
 70
     0
102
RTVSPropertyOp20
 70
     0
102
RTVSPropertyOp21
 70
     0
102
RTVSPropertyOp22
 70
     0
102
RTVSPropertyOp23
 70
     0
102
RTVSPropertyOp24
 70
     0
102
RTVSPropertyOp25
 70
     0
102
RTVSPropertyOp26
 70
     0
102
RTVSPropertyOp27
 70
     0
102
RTVSPropertyOp28
 70
     1
102
RTVSPropertyOp29
 70
     1
102
RTVSPropertyOp30
 70
     1
102
RTVSPropertyOp31
 70
     1
102
RTVSPropertyOp32
 70
     1
102
RTVSPropertyOp33
 70
     1
102
RTVSPropertyOp34
 70
     1
102
RTVSPropertyOp35
 70
     1
102
RTVSPropertyOp36
 70
     1
102
RTVSPropertyOp37
 70
     1
102
RTVSPropertyOp38
 70
     1
102
RTVSPropertyOp39
 70
     1
102
RTVSPropertyOp40
 70
     1
102
RTVSPropertyOp41
 70
     1
102
RTVSPropertyOp42
 70
     1
102
RTVSPropertyOp43
 70
     1
102
RTVSPropertyOp44
 70
     1
102
RTVSPropertyOp45
 70
     1
102
RTVSPropertyOp46
 70
     1
102
RTVSPropertyOp47
 70
     1
102
RTVSPropertyOp48
 70
     1
102
RTVSPropertyOp49
 70
     1
102
RTVSPropertyOp50
 70
     1
102
RTVSPropertyOp51
 70
     0
102
RTVSPropertyOp52
 70
     0
102
RTVSPropertyOp53
 70
     1
102
RTVSPropertyOp54
 70
     1
102
RTVSPropertyOp55
 70
     1
102
RTVSPropertyOp56
 70
     1
102
RTVSPropertyOp57
 70
     1
102
RTVSPropertyOp58
 70
     1
102
RTVSPropertyOp59
 70
     1
102
RTVSPropertyOp60
 70
     1
102
RTVSPropertyOp61
 70
     1
102
RTVSPropertyOp62
 70
     1
  0
XRECORD
  5
BA1B
102
{ACAD_REACTORS
330
BA1A
102
}
330
BA1A
100
AcDbXrecord
280
     1
102
RTVSPost2010Prop28
280
     0
102
RTVSPost2010PropOp28
 70
     1
102
RTVSPost2010Prop29
280
     1
102
RTVSPost2010PropOp29
 70
     1
102
RTVSPost2010Prop30
280
     1
102
RTVSPost2010PropOp30
 70
     1
102
RTVSPost2010Prop31
280
     0
102
RTVSPost2010PropOp31
 70
     1
102
RTVSPost2010Prop32
280
     0
102
RTVSPost2010PropOp32
 70
     1
102
RTVSPost2010Prop33
280
     0
102
RTVSPost2010PropOp33
 70
     1
102
RTVSPost2010Prop34
280
     0
102
RTVSPost2010PropOp34
 70
     1
102
RTVSPost2010Prop35
280
     0
102
RTVSPost2010PropOp35
 70
     1
102
RTVSPost2010Prop36
280
     0
102
RTVSPost2010PropOp36
 70
     1
102
RTVSPost2010Prop37
 90
       50
102
RTVSPost2010PropOp37
 70
     1
102
RTVSPost2010Prop38
140
0.0
102
RTVSPost2010PropOp38
 70
     1
102
RTVSPost2010Prop39
140
1.0
102
RTVSPost2010PropOp39
 70
     1
102
RTVSPost2010Prop40
 90
        0
102
RTVSPost2010PropOp40
 70
     1
102
RTVSPost2010Prop41ColorIndex
 90
       18
102
RTVSPost2010Prop41ColorRGB
 90
        0
102
RTVSPost2010PropOp41
 70
     1
102
RTVSPost2010Prop42
 90
       50
102
RTVSPost2010PropOp42
 70
     1
102
RTVSPost2010Prop43
 90
        3
102
RTVSPost2010PropOp43
 70
     1
102
RTVSPost2010Prop44ColorIndex
 90
        5
102
RTVSPost2010Prop44ColorRGB
 90
      255
102
RTVSPost2010PropOp44
 70
     1
102
RTVSPost2010Prop45
280
     0
102
RTVSPost2010PropOp45
 70
     1
102
RTVSPost2010Prop46
 90
       50
102
RTVSPost2010PropOp46
 70
     1
102
RTVSPost2010Prop47
 90
       50
102
RTVSPost2010PropOp47
 70
     1
102
RTVSPost2010Prop48
 90
       50
102
RTVSPost2010PropOp48
 70
     1
102
RTVSPost2010Prop49
280
     0
102
RTVSPost2010PropOp49
 70
     1
102
RTVSPost2010Prop50
 90
       50
102
RTVSPost2010PropOp50
 70
     1
102
RTVSPost2010Prop51ColorIndex
 90
      256
102
RTVSPost2010Prop51ColorRGB
 90
-16777216
102
RTVSPost2010PropOp51
 70
     0
102
RTVSPost2010Prop52
140
1.0
102
RTVSPost2010PropOp52
 70
     0
102
RTVSPost2010Prop53
 90
        2
102
RTVSPost2010PropOp53
 70
     1
102
RTVSPost2010Prop54
  1
strokes_ogs.tif
102
RTVSPost2010PropOp54
 70
     1
102
RTVSPost2010Prop55
280
     0
102
RTVSPost2010PropOp55
 70
     1
102
RTVSPost2010Prop56
140
1.0
102
RTVSPost2010PropOp56
 70
     1
102
RTVSPost2010Prop57
140
1.0
102
RTVSPost2010PropOp57
 70
     1
102
RTVSPropertyOp0
 70
     1
102
RTVSPropertyOp1
 70
     1
102
RTVSPropertyOp2
 70
     1
102
RTVSPropertyOp3
 70
     1
102
RTVSPropertyOp4
 70
     1
102
RTVSPropertyOp5
 70
     1
102
RTVSPropertyOp6
 70
     1
102
RTVSPropertyOp7
 70
     1
102
RTVSPropertyOp8
 70
     1
102
RTVSPropertyOp9
 70
     1
102
RTVSPropertyOp10
 70
     1
102
RTVSPropertyOp11
 70
     1
102
RTVSPropertyOp12
 70
     1
102
RTVSPropertyOp13
 70
     1
102
RTVSPropertyOp14
 70
     1
102
RTVSPropertyOp15
 70
     1
102
RTVSPropertyOp16
 70
     1
102
RTVSPropertyOp17
 70
     1
102
RTVSPropertyOp18
 70
     1
102
RTVSPropertyOp19
 70
     1
102
RTVSPropertyOp20
 70
     1
102
RTVSPropertyOp21
 70
     1
102
RTVSPropertyOp22
 70
     1
102
RTVSPropertyOp23
 70
     1
102
RTVSPropertyOp24
 70
     1
102
RTVSPropertyOp25
 70
     1
102
RTVSPropertyOp26
 70
     1
102
RTVSPropertyOp27
 70
     1
102
RTVSPropertyOp28
 70
     1
102
RTVSPropertyOp29
 70
     1
102
RTVSPropertyOp30
 70
     1
102
RTVSPropertyOp31
 70
     1
102
RTVSPropertyOp32
 70
     1
102
RTVSPropertyOp33
 70
     1
102
RTVSPropertyOp34
 70
     1
102
RTVSPropertyOp35
 70
     1
102
RTVSPropertyOp36
 70
     1
102
RTVSPropertyOp37
 70
     1
102
RTVSPropertyOp38
 70
     1
102
RTVSPropertyOp39
 70
     1
102
RTVSPropertyOp40
 70
     1
102
RTVSPropertyOp41
 70
     1
102
RTVSPropertyOp42
 70
     1
102
RTVSPropertyOp43
 70
     1
102
RTVSPropertyOp44
 70
     1
102
RTVSPropertyOp45
 70
     1
102
RTVSPropertyOp46
 70
     1
102
RTVSPropertyOp47
 70
     1
102
RTVSPropertyOp48
 70
     1
102
RTVSPropertyOp49
 70
     1
102
RTVSPropertyOp50
 70
     1
102
RTVSPropertyOp51
 70
     0
102
RTVSPropertyOp52
 70
     0
102
RTVSPropertyOp53
 70
     1
102
RTVSPropertyOp54
 70
     1
102
RTVSPropertyOp55
 70
     1
102
RTVSPropertyOp56
 70
     1
102
RTVSPropertyOp57
 70
     1
102
RTVSPropertyOp58
 70
     1
102
RTVSPropertyOp59
 70
     1
102
RTVSPropertyOp60
 70
     1
102
RTVSPropertyOp61
 70
     1
102
RTVSPropertyOp62
 70
     1
  0
XRECORD
  5
BA39
102
{ACAD_REACTORS
330
BA38
102
}
330
BA38
100
AcDbXrecord
280
     1
102
RTVSPost2010Prop28
280
     0
102
RTVSPost2010PropOp28
 70
     1
102
RTVSPost2010Prop29
280
     1
102
RTVSPost2010PropOp29
 70
     1
102
RTVSPost2010Prop30
280
     1
102
RTVSPost2010PropOp30
 70
     1
102
RTVSPost2010Prop31
280
     0
102
RTVSPost2010PropOp31
 70
     1
102
RTVSPost2010Prop32
280
     0
102
RTVSPost2010PropOp32
 70
     1
102
RTVSPost2010Prop33
280
     0
102
RTVSPost2010PropOp33
 70
     1
102
RTVSPost2010Prop34
280
     0
102
RTVSPost2010PropOp34
 70
     1
102
RTVSPost2010Prop35
280
     0
102
RTVSPost2010PropOp35
 70
     1
102
RTVSPost2010Prop36
280
     0
102
RTVSPost2010PropOp36
 70
     1
102
RTVSPost2010Prop37
 90
       50
102
RTVSPost2010PropOp37
 70
     1
102
RTVSPost2010Prop38
140
0.0
102
RTVSPost2010PropOp38
 70
     1
102
RTVSPost2010Prop39
140
1.0
102
RTVSPost2010PropOp39
 70
     1
102
RTVSPost2010Prop40
 90
        0
102
RTVSPost2010PropOp40
 70
     1
102
RTVSPost2010Prop41ColorIndex
 90
       18
102
RTVSPost2010Prop41ColorRGB
 90
        0
102
RTVSPost2010PropOp41
 70
     1
102
RTVSPost2010Prop42
 90
       50
102
RTVSPost2010PropOp42
 70
     1
102
RTVSPost2010Prop43
 90
        3
102
RTVSPost2010PropOp43
 70
     1
102
RTVSPost2010Prop44ColorIndex
 90
        5
102
RTVSPost2010Prop44ColorRGB
 90
      255
102
RTVSPost2010PropOp44
 70
     1
102
RTVSPost2010Prop45
280
     0
102
RTVSPost2010PropOp45
 70
     1
102
RTVSPost2010Prop46
 90
       50
102
RTVSPost2010PropOp46
 70
     1
102
RTVSPost2010Prop47
 90
       50
102
RTVSPost2010PropOp47
 70
     1
102
RTVSPost2010Prop48
 90
       50
102
RTVSPost2010PropOp48
 70
     1
102
RTVSPost2010Prop49
280
     0
102
RTVSPost2010PropOp49
 70
     1
102
RTVSPost2010Prop50
 90
       50
102
RTVSPost2010PropOp50
 70
     1
102
RTVSPost2010Prop51ColorIndex
 90
      256
102
RTVSPost2010Prop51ColorRGB
 90
-16777216
102
RTVSPost2010PropOp51
 70
     0
102
RTVSPost2010Prop52
140
1.0
102
RTVSPost2010PropOp52
 70
     0
102
RTVSPost2010Prop53
 90
        2
102
RTVSPost2010PropOp53
 70
     1
102
RTVSPost2010Prop54
  1
strokes_ogs.tif
102
RTVSPost2010PropOp54
 70
     1
102
RTVSPost2010Prop55
280
     0
102
RTVSPost2010PropOp55
 70
     1
102
RTVSPost2010Prop56
140
1.0
102
RTVSPost2010PropOp56
 70
     1
102
RTVSPost2010Prop57
140
1.0
102
RTVSPost2010PropOp57
 70
     1
102
RTVSPropertyOp0
 70
     1
102
RTVSPropertyOp1
 70
     1
102
RTVSPropertyOp2
 70
     1
102
RTVSPropertyOp3
 70
     1
102
RTVSPropertyOp4
 70
     1
102
RTVSPropertyOp5
 70
     1
102
RTVSPropertyOp6
 70
     1
102
RTVSPropertyOp7
 70
     1
102
RTVSPropertyOp8
 70
     1
102
RTVSPropertyOp9
 70
     1
102
RTVSPropertyOp10
 70
     1
102
RTVSPropertyOp11
 70
     1
102
RTVSPropertyOp12
 70
     1
102
RTVSPropertyOp13
 70
     1
102
RTVSPropertyOp14
 70
     1
102
RTVSPropertyOp15
 70
     1
102
RTVSPropertyOp16
 70
     1
102
RTVSPropertyOp17
 70
     1
102
RTVSPropertyOp18
 70
     1
102
RTVSPropertyOp19
 70
     1
102
RTVSPropertyOp20
 70
     1
102
RTVSPropertyOp21
 70
     1
102
RTVSPropertyOp22
 70
     1
102
RTVSPropertyOp23
 70
     1
102
RTVSPropertyOp24
 70
     1
102
RTVSPropertyOp25
 70
     1
102
RTVSPropertyOp26
 70
     1
102
RTVSPropertyOp27
 70
     1
102
RTVSPropertyOp28
 70
     1
102
RTVSPropertyOp29
 70
     1
102
RTVSPropertyOp30
 70
     1
102
RTVSPropertyOp31
 70
     1
102
RTVSPropertyOp32
 70
     1
102
RTVSPropertyOp33
 70
     1
102
RTVSPropertyOp34
 70
     1
102
RTVSPropertyOp35
 70
     1
102
RTVSPropertyOp36
 70
     1
102
RTVSPropertyOp37
 70
     1
102
RTVSPropertyOp38
 70
     1
102
RTVSPropertyOp39
 70
     1
102
RTVSPropertyOp40
 70
     1
102
RTVSPropertyOp41
 70
     1
102
RTVSPropertyOp42
 70
     1
102
RTVSPropertyOp43
 70
     1
102
RTVSPropertyOp44
 70
     1
102
RTVSPropertyOp45
 70
     1
102
RTVSPropertyOp46
 70
     1
102
RTVSPropertyOp47
 70
     1
102
RTVSPropertyOp48
 70
     1
102
RTVSPropertyOp49
 70
     1
102
RTVSPropertyOp50
 70
     1
102
RTVSPropertyOp51
 70
     0
102
RTVSPropertyOp52
 70
     0
102
RTVSPropertyOp53
 70
     1
102
RTVSPropertyOp54
 70
     1
102
RTVSPropertyOp55
 70
     1
102
RTVSPropertyOp56
 70
     1
102
RTVSPropertyOp57
 70
     1
102
RTVSPropertyOp58
 70
     1
102
RTVSPropertyOp59
 70
     1
102
RTVSPropertyOp60
 70
     1
102
RTVSPropertyOp61
 70
     1
102
RTVSPropertyOp62
 70
     1
  0
XRECORD
  5
BA37
102
{ACAD_REACTORS
330
BA36
102
}
330
BA36
100
AcDbXrecord
280
     1
102
RTVSPost2010Prop28
280
     0
102
RTVSPost2010PropOp28
 70
     1
102
RTVSPost2010Prop29
280
     1
102
RTVSPost2010PropOp29
 70
     1
102
RTVSPost2010Prop30
280
     1
102
RTVSPost2010PropOp30
 70
     1
102
RTVSPost2010Prop31
280
     0
102
RTVSPost2010PropOp31
 70
     1
102
RTVSPost2010Prop32
280
     0
102
RTVSPost2010PropOp32
 70
     1
102
RTVSPost2010Prop33
280
     0
102
RTVSPost2010PropOp33
 70
     1
102
RTVSPost2010Prop34
280
     0
102
RTVSPost2010PropOp34
 70
     1
102
RTVSPost2010Prop35
280
     0
102
RTVSPost2010PropOp35
 70
     1
102
RTVSPost2010Prop36
280
     0
102
RTVSPost2010PropOp36
 70
     1
102
RTVSPost2010Prop37
 90
       50
102
RTVSPost2010PropOp37
 70
     1
102
RTVSPost2010Prop38
140
0.0
102
RTVSPost2010PropOp38
 70
     1
102
RTVSPost2010Prop39
140
1.0
102
RTVSPost2010PropOp39
 70
     1
102
RTVSPost2010Prop40
 90
        0
102
RTVSPost2010PropOp40
 70
     1
102
RTVSPost2010Prop41ColorIndex
 90
       18
102
RTVSPost2010Prop41ColorRGB
 90
        0
102
RTVSPost2010PropOp41
 70
     1
102
RTVSPost2010Prop42
 90
       50
102
RTVSPost2010PropOp42
 70
     1
102
RTVSPost2010Prop43
 90
        3
102
RTVSPost2010PropOp43
 70
     1
102
RTVSPost2010Prop44ColorIndex
 90
        5
102
RTVSPost2010Prop44ColorRGB
 90
      255
102
RTVSPost2010PropOp44
 70
     1
102
RTVSPost2010Prop45
280
     0
102
RTVSPost2010PropOp45
 70
     1
102
RTVSPost2010Prop46
 90
       50
102
RTVSPost2010PropOp46
 70
     1
102
RTVSPost2010Prop47
 90
       50
102
RTVSPost2010PropOp47
 70
     1
102
RTVSPost2010Prop48
 90
       50
102
RTVSPost2010PropOp48
 70
     1
102
RTVSPost2010Prop49
280
     0
102
RTVSPost2010PropOp49
 70
     1
102
RTVSPost2010Prop50
 90
       50
102
RTVSPost2010PropOp50
 70
     1
102
RTVSPost2010Prop51ColorIndex
 90
      256
102
RTVSPost2010Prop51ColorRGB
 90
-16777216
102
RTVSPost2010PropOp51
 70
     0
102
RTVSPost2010Prop52
140
1.0
102
RTVSPost2010PropOp52
 70
     0
102
RTVSPost2010Prop53
 90
        2
102
RTVSPost2010PropOp53
 70
     1
102
RTVSPost2010Prop54
  1
strokes_ogs.tif
102
RTVSPost2010PropOp54
 70
     1
102
RTVSPost2010Prop55
280
     0
102
RTVSPost2010PropOp55
 70
     1
102
RTVSPost2010Prop56
140
1.0
102
RTVSPost2010PropOp56
 70
     1
102
RTVSPost2010Prop57
140
1.0
102
RTVSPost2010PropOp57
 70
     1
102
RTVSPropertyOp0
 70
     1
102
RTVSPropertyOp1
 70
     1
102
RTVSPropertyOp2
 70
     1
102
RTVSPropertyOp3
 70
     1
102
RTVSPropertyOp4
 70
     1
102
RTVSPropertyOp5
 70
     1
102
RTVSPropertyOp6
 70
     1
102
RTVSPropertyOp7
 70
     1
102
RTVSPropertyOp8
 70
     1
102
RTVSPropertyOp9
 70
     1
102
RTVSPropertyOp10
 70
     1
102
RTVSPropertyOp11
 70
     1
102
RTVSPropertyOp12
 70
     1
102
RTVSPropertyOp13
 70
     1
102
RTVSPropertyOp14
 70
     1
102
RTVSPropertyOp15
 70
     1
102
RTVSPropertyOp16
 70
     1
102
RTVSPropertyOp17
 70
     1
102
RTVSPropertyOp18
 70
     1
102
RTVSPropertyOp19
 70
     1
102
RTVSPropertyOp20
 70
     1
102
RTVSPropertyOp21
 70
     1
102
RTVSPropertyOp22
 70
     1
102
RTVSPropertyOp23
 70
     1
102
RTVSPropertyOp24
 70
     1
102
RTVSPropertyOp25
 70
     1
102
RTVSPropertyOp26
 70
     1
102
RTVSPropertyOp27
 70
     1
102
RTVSPropertyOp28
 70
     1
102
RTVSPropertyOp29
 70
     1
102
RTVSPropertyOp30
 70
     1
102
RTVSPropertyOp31
 70
     1
102
RTVSPropertyOp32
 70
     1
102
RTVSPropertyOp33
 70
     1
102
RTVSPropertyOp34
 70
     1
102
RTVSPropertyOp35
 70
     1
102
RTVSPropertyOp36
 70
     1
102
RTVSPropertyOp37
 70
     1
102
RTVSPropertyOp38
 70
     1
102
RTVSPropertyOp39
 70
     1
102
RTVSPropertyOp40
 70
     1
102
RTVSPropertyOp41
 70
     1
102
RTVSPropertyOp42
 70
     1
102
RTVSPropertyOp43
 70
     1
102
RTVSPropertyOp44
 70
     1
102
RTVSPropertyOp45
 70
     1
102
RTVSPropertyOp46
 70
     1
102
RTVSPropertyOp47
 70
     1
102
RTVSPropertyOp48
 70
     1
102
RTVSPropertyOp49
 70
     1
102
RTVSPropertyOp50
 70
     1
102
RTVSPropertyOp51
 70
     0
102
RTVSPropertyOp52
 70
     0
102
RTVSPropertyOp53
 70
     1
102
RTVSPropertyOp54
 70
     1
102
RTVSPropertyOp55
 70
     1
102
RTVSPropertyOp56
 70
     1
102
RTVSPropertyOp57
 70
     1
102
RTVSPropertyOp58
 70
     1
102
RTVSPropertyOp59
 70
     1
102
RTVSPropertyOp60
 70
     1
102
RTVSPropertyOp61
 70
     1
102
RTVSPropertyOp62
 70
     1
  0
XRECORD
  5
BA31
102
{ACAD_REACTORS
330
BA30
102
}
330
BA30
100
AcDbXrecord
280
     1
102
RTVSPost2010Prop28
280
     0
102
RTVSPost2010PropOp28
 70
     1
102
RTVSPost2010Prop29
280
     1
102
RTVSPost2010PropOp29
 70
     1
102
RTVSPost2010Prop30
280
     1
102
RTVSPost2010PropOp30
 70
     1
102
RTVSPost2010Prop31
280
     0
102
RTVSPost2010PropOp31
 70
     1
102
RTVSPost2010Prop32
280
     0
102
RTVSPost2010PropOp32
 70
     1
102
RTVSPost2010Prop33
280
     0
102
RTVSPost2010PropOp33
 70
     1
102
RTVSPost2010Prop34
280
     0
102
RTVSPost2010PropOp34
 70
     1
102
RTVSPost2010Prop35
280
     0
102
RTVSPost2010PropOp35
 70
     1
102
RTVSPost2010Prop36
280
     0
102
RTVSPost2010PropOp36
 70
     1
102
RTVSPost2010Prop37
 90
       50
102
RTVSPost2010PropOp37
 70
     1
102
RTVSPost2010Prop38
140
0.0
102
RTVSPost2010PropOp38
 70
     1
102
RTVSPost2010Prop39
140
1.0
102
RTVSPost2010PropOp39
 70
     1
102
RTVSPost2010Prop40
 90
        0
102
RTVSPost2010PropOp40
 70
     1
102
RTVSPost2010Prop41ColorIndex
 90
       18
102
RTVSPost2010Prop41ColorRGB
 90
        0
102
RTVSPost2010PropOp41
 70
     1
102
RTVSPost2010Prop42
 90
       50
102
RTVSPost2010PropOp42
 70
     1
102
RTVSPost2010Prop43
 90
        3
102
RTVSPost2010PropOp43
 70
     1
102
RTVSPost2010Prop44ColorIndex
 90
        5
102
RTVSPost2010Prop44ColorRGB
 90
      255
102
RTVSPost2010PropOp44
 70
     1
102
RTVSPost2010Prop45
280
     0
102
RTVSPost2010PropOp45
 70
     1
102
RTVSPost2010Prop46
 90
       50
102
RTVSPost2010PropOp46
 70
     1
102
RTVSPost2010Prop47
 90
       50
102
RTVSPost2010PropOp47
 70
     1
102
RTVSPost2010Prop48
 90
       50
102
RTVSPost2010PropOp48
 70
     1
102
RTVSPost2010Prop49
280
     0
102
RTVSPost2010PropOp49
 70
     1
102
RTVSPost2010Prop50
 90
       50
102
RTVSPost2010PropOp50
 70
     1
102
RTVSPost2010Prop51ColorIndex
 90
      256
102
RTVSPost2010Prop51ColorRGB
 90
-16777216
102
RTVSPost2010PropOp51
 70
     0
102
RTVSPost2010Prop52
140
1.0
102
RTVSPost2010PropOp52
 70
     0
102
RTVSPost2010Prop53
 90
        2
102
RTVSPost2010PropOp53
 70
     1
102
RTVSPost2010Prop54
  1
strokes_ogs.tif
102
RTVSPost2010PropOp54
 70
     1
102
RTVSPost2010Prop55
280
     0
102
RTVSPost2010PropOp55
 70
     1
102
RTVSPost2010Prop56
140
1.0
102
RTVSPost2010PropOp56
 70
     1
102
RTVSPost2010Prop57
140
1.0
102
RTVSPost2010PropOp57
 70
     1
102
RTVSPropertyOp0
 70
     1
102
RTVSPropertyOp1
 70
     1
102
RTVSPropertyOp2
 70
     1
102
RTVSPropertyOp3
 70
     1
102
RTVSPropertyOp4
 70
     1
102
RTVSPropertyOp5
 70
     1
102
RTVSPropertyOp6
 70
     1
102
RTVSPropertyOp7
 70
     1
102
RTVSPropertyOp8
 70
     1
102
RTVSPropertyOp9
 70
     1
102
RTVSPropertyOp10
 70
     1
102
RTVSPropertyOp11
 70
     1
102
RTVSPropertyOp12
 70
     1
102
RTVSPropertyOp13
 70
     1
102
RTVSPropertyOp14
 70
     1
102
RTVSPropertyOp15
 70
     1
102
RTVSPropertyOp16
 70
     1
102
RTVSPropertyOp17
 70
     1
102
RTVSPropertyOp18
 70
     1
102
RTVSPropertyOp19
 70
     1
102
RTVSPropertyOp20
 70
     1
102
RTVSPropertyOp21
 70
     1
102
RTVSPropertyOp22
 70
     1
102
RTVSPropertyOp23
 70
     1
102
RTVSPropertyOp24
 70
     1
102
RTVSPropertyOp25
 70
     1
102
RTVSPropertyOp26
 70
     1
102
RTVSPropertyOp27
 70
     1
102
RTVSPropertyOp28
 70
     1
102
RTVSPropertyOp29
 70
     1
102
RTVSPropertyOp30
 70
     1
102
RTVSPropertyOp31
 70
     1
102
RTVSPropertyOp32
 70
     1
102
RTVSPropertyOp33
 70
     1
102
RTVSPropertyOp34
 70
     1
102
RTVSPropertyOp35
 70
     1
102
RTVSPropertyOp36
 70
     1
102
RTVSPropertyOp37
 70
     1
102
RTVSPropertyOp38
 70
     1
102
RTVSPropertyOp39
 70
     1
102
RTVSPropertyOp40
 70
     1
102
RTVSPropertyOp41
 70
     1
102
RTVSPropertyOp42
 70
     1
102
RTVSPropertyOp43
 70
     1
102
RTVSPropertyOp44
 70
     1
102
RTVSPropertyOp45
 70
     1
102
RTVSPropertyOp46
 70
     1
102
RTVSPropertyOp47
 70
     1
102
RTVSPropertyOp48
 70
     1
102
RTVSPropertyOp49
 70
     1
102
RTVSPropertyOp50
 70
     1
102
RTVSPropertyOp51
 70
     0
102
RTVSPropertyOp52
 70
     0
102
RTVSPropertyOp53
 70
     1
102
RTVSPropertyOp54
 70
     1
102
RTVSPropertyOp55
 70
     1
102
RTVSPropertyOp56
 70
     1
102
RTVSPropertyOp57
 70
     1
102
RTVSPropertyOp58
 70
     1
102
RTVSPropertyOp59
 70
     1
102
RTVSPropertyOp60
 70
     1
102
RTVSPropertyOp61
 70
     1
102
RTVSPropertyOp62
 70
     1
  0
XRECORD
  5
BA33
102
{ACAD_REACTORS
330
BA32
102
}
330
BA32
100
AcDbXrecord
280
     1
102
RTVSPost2010Prop28
280
     0
102
RTVSPost2010PropOp28
 70
     1
102
RTVSPost2010Prop29
280
     1
102
RTVSPost2010PropOp29
 70
     1
102
RTVSPost2010Prop30
280
     1
102
RTVSPost2010PropOp30
 70
     1
102
RTVSPost2010Prop31
280
     0
102
RTVSPost2010PropOp31
 70
     1
102
RTVSPost2010Prop32
280
     0
102
RTVSPost2010PropOp32
 70
     1
102
RTVSPost2010Prop33
280
     0
102
RTVSPost2010PropOp33
 70
     1
102
RTVSPost2010Prop34
280
     0
102
RTVSPost2010PropOp34
 70
     1
102
RTVSPost2010Prop35
280
     0
102
RTVSPost2010PropOp35
 70
     1
102
RTVSPost2010Prop36
280
     0
102
RTVSPost2010PropOp36
 70
     1
102
RTVSPost2010Prop37
 90
       50
102
RTVSPost2010PropOp37
 70
     1
102
RTVSPost2010Prop38
140
0.0
102
RTVSPost2010PropOp38
 70
     1
102
RTVSPost2010Prop39
140
1.0
102
RTVSPost2010PropOp39
 70
     1
102
RTVSPost2010Prop40
 90
        0
102
RTVSPost2010PropOp40
 70
     1
102
RTVSPost2010Prop41ColorIndex
 90
       18
102
RTVSPost2010Prop41ColorRGB
 90
        0
102
RTVSPost2010PropOp41
 70
     1
102
RTVSPost2010Prop42
 90
       50
102
RTVSPost2010PropOp42
 70
     1
102
RTVSPost2010Prop43
 90
        3
102
RTVSPost2010PropOp43
 70
     1
102
RTVSPost2010Prop44ColorIndex
 90
        5
102
RTVSPost2010Prop44ColorRGB
 90
      255
102
RTVSPost2010PropOp44
 70
     1
102
RTVSPost2010Prop45
280
     0
102
RTVSPost2010PropOp45
 70
     1
102
RTVSPost2010Prop46
 90
       50
102
RTVSPost2010PropOp46
 70
     1
102
RTVSPost2010Prop47
 90
       50
102
RTVSPost2010PropOp47
 70
     1
102
RTVSPost2010Prop48
 90
       50
102
RTVSPost2010PropOp48
 70
     1
102
RTVSPost2010Prop49
280
     0
102
RTVSPost2010PropOp49
 70
     1
102
RTVSPost2010Prop50
 90
       50
102
RTVSPost2010PropOp50
 70
     1
102
RTVSPost2010Prop51ColorIndex
 90
      256
102
RTVSPost2010Prop51ColorRGB
 90
-16777216
102
RTVSPost2010PropOp51
 70
     0
102
RTVSPost2010Prop52
140
1.0
102
RTVSPost2010PropOp52
 70
     0
102
RTVSPost2010Prop53
 90
        2
102
RTVSPost2010PropOp53
 70
     1
102
RTVSPost2010Prop54
  1
strokes_ogs.tif
102
RTVSPost2010PropOp54
 70
     1
102
RTVSPost2010Prop55
280
     0
102
RTVSPost2010PropOp55
 70
     1
102
RTVSPost2010Prop56
140
1.0
102
RTVSPost2010PropOp56
 70
     1
102
RTVSPost2010Prop57
140
1.0
102
RTVSPost2010PropOp57
 70
     1
102
RTVSPropertyOp0
 70
     1
102
RTVSPropertyOp1
 70
     1
102
RTVSPropertyOp2
 70
     1
102
RTVSPropertyOp3
 70
     1
102
RTVSPropertyOp4
 70
     1
102
RTVSPropertyOp5
 70
     1
102
RTVSPropertyOp6
 70
     1
102
RTVSPropertyOp7
 70
     1
102
RTVSPropertyOp8
 70
     1
102
RTVSPropertyOp9
 70
     1
102
RTVSPropertyOp10
 70
     1
102
RTVSPropertyOp11
 70
     1
102
RTVSPropertyOp12
 70
     1
102
RTVSPropertyOp13
 70
     1
102
RTVSPropertyOp14
 70
     1
102
RTVSPropertyOp15
 70
     1
102
RTVSPropertyOp16
 70
     1
102
RTVSPropertyOp17
 70
     1
102
RTVSPropertyOp18
 70
     1
102
RTVSPropertyOp19
 70
     1
102
RTVSPropertyOp20
 70
     1
102
RTVSPropertyOp21
 70
     1
102
RTVSPropertyOp22
 70
     1
102
RTVSPropertyOp23
 70
     1
102
RTVSPropertyOp24
 70
     1
102
RTVSPropertyOp25
 70
     1
102
RTVSPropertyOp26
 70
     1
102
RTVSPropertyOp27
 70
     1
102
RTVSPropertyOp28
 70
     1
102
RTVSPropertyOp29
 70
     1
102
RTVSPropertyOp30
 70
     1
102
RTVSPropertyOp31
 70
     1
102
RTVSPropertyOp32
 70
     1
102
RTVSPropertyOp33
 70
     1
102
RTVSPropertyOp34
 70
     1
102
RTVSPropertyOp35
 70
     1
102
RTVSPropertyOp36
 70
     1
102
RTVSPropertyOp37
 70
     1
102
RTVSPropertyOp38
 70
     1
102
RTVSPropertyOp39
 70
     1
102
RTVSPropertyOp40
 70
     1
102
RTVSPropertyOp41
 70
     1
102
RTVSPropertyOp42
 70
     1
102
RTVSPropertyOp43
 70
     1
102
RTVSPropertyOp44
 70
     1
102
RTVSPropertyOp45
 70
     1
102
RTVSPropertyOp46
 70
     1
102
RTVSPropertyOp47
 70
     1
102
RTVSPropertyOp48
 70
     1
102
RTVSPropertyOp49
 70
     1
102
RTVSPropertyOp50
 70
     1
102
RTVSPropertyOp51
 70
     0
102
RTVSPropertyOp52
 70
     0
102
RTVSPropertyOp53
 70
     1
102
RTVSPropertyOp54
 70
     1
102
RTVSPropertyOp55
 70
     1
102
RTVSPropertyOp56
 70
     1
102
RTVSPropertyOp57
 70
     1
102
RTVSPropertyOp58
 70
     1
102
RTVSPropertyOp59
 70
     1
102
RTVSPropertyOp60
 70
     1
102
RTVSPropertyOp61
 70
     1
102
RTVSPropertyOp62
 70
     1
  0
XRECORD
  5
BA21
102
{ACAD_REACTORS
330
BA20
102
}
330
BA20
100
AcDbXrecord
280
     1
102
RTVSPost2010Prop28
280
     0
102
RTVSPost2010PropOp28
 70
     1
102
RTVSPost2010Prop29
280
     1
102
RTVSPost2010PropOp29
 70
     1
102
RTVSPost2010Prop30
280
     1
102
RTVSPost2010PropOp30
 70
     1
102
RTVSPost2010Prop31
280
     0
102
RTVSPost2010PropOp31
 70
     1
102
RTVSPost2010Prop32
280
     0
102
RTVSPost2010PropOp32
 70
     1
102
RTVSPost2010Prop33
280
     0
102
RTVSPost2010PropOp33
 70
     1
102
RTVSPost2010Prop34
280
     0
102
RTVSPost2010PropOp34
 70
     1
102
RTVSPost2010Prop35
280
     0
102
RTVSPost2010PropOp35
 70
     1
102
RTVSPost2010Prop36
280
     0
102
RTVSPost2010PropOp36
 70
     1
102
RTVSPost2010Prop37
 90
       50
102
RTVSPost2010PropOp37
 70
     1
102
RTVSPost2010Prop38
140
0.0
102
RTVSPost2010PropOp38
 70
     1
102
RTVSPost2010Prop39
140
1.0
102
RTVSPost2010PropOp39
 70
     1
102
RTVSPost2010Prop40
 90
        0
102
RTVSPost2010PropOp40
 70
     1
102
RTVSPost2010Prop41ColorIndex
 90
       18
102
RTVSPost2010Prop41ColorRGB
 90
        0
102
RTVSPost2010PropOp41
 70
     1
102
RTVSPost2010Prop42
 90
       50
102
RTVSPost2010PropOp42
 70
     1
102
RTVSPost2010Prop43
 90
        3
102
RTVSPost2010PropOp43
 70
     1
102
RTVSPost2010Prop44ColorIndex
 90
        5
102
RTVSPost2010Prop44ColorRGB
 90
      255
102
RTVSPost2010PropOp44
 70
     1
102
RTVSPost2010Prop45
280
     0
102
RTVSPost2010PropOp45
 70
     1
102
RTVSPost2010Prop46
 90
       50
102
RTVSPost2010PropOp46
 70
     1
102
RTVSPost2010Prop47
 90
       50
102
RTVSPost2010PropOp47
 70
     1
102
RTVSPost2010Prop48
 90
       50
102
RTVSPost2010PropOp48
 70
     1
102
RTVSPost2010Prop49
280
     0
102
RTVSPost2010PropOp49
 70
     1
102
RTVSPost2010Prop50
 90
       50
102
RTVSPost2010PropOp50
 70
     1
102
RTVSPost2010Prop51ColorIndex
 90
      256
102
RTVSPost2010Prop51ColorRGB
 90
-16777216
102
RTVSPost2010PropOp51
 70
     0
102
RTVSPost2010Prop52
140
1.0
102
RTVSPost2010PropOp52
 70
     0
102
RTVSPost2010Prop53
 90
        2
102
RTVSPost2010PropOp53
 70
     1
102
RTVSPost2010Prop54
  1
strokes_ogs.tif
102
RTVSPost2010PropOp54
 70
     1
102
RTVSPost2010Prop55
280
     0
102
RTVSPost2010PropOp55
 70
     1
102
RTVSPost2010Prop56
140
1.0
102
RTVSPost2010PropOp56
 70
     1
102
RTVSPost2010Prop57
140
1.0
102
RTVSPost2010PropOp57
 70
     1
102
RTVSPropertyOp0
 70
     1
102
RTVSPropertyOp1
 70
     1
102
RTVSPropertyOp2
 70
     1
102
RTVSPropertyOp3
 70
     1
102
RTVSPropertyOp4
 70
     1
102
RTVSPropertyOp5
 70
     1
102
RTVSPropertyOp6
 70
     1
102
RTVSPropertyOp7
 70
     1
102
RTVSPropertyOp8
 70
     1
102
RTVSPropertyOp9
 70
     1
102
RTVSPropertyOp10
 70
     1
102
RTVSPropertyOp11
 70
     1
102
RTVSPropertyOp12
 70
     1
102
RTVSPropertyOp13
 70
     1
102
RTVSPropertyOp14
 70
     1
102
RTVSPropertyOp15
 70
     1
102
RTVSPropertyOp16
 70
     1
102
RTVSPropertyOp17
 70
     1
102
RTVSPropertyOp18
 70
     1
102
RTVSPropertyOp19
 70
     1
102
RTVSPropertyOp20
 70
     1
102
RTVSPropertyOp21
 70
     1
102
RTVSPropertyOp22
 70
     1
102
RTVSPropertyOp23
 70
     1
102
RTVSPropertyOp24
 70
     1
102
RTVSPropertyOp25
 70
     1
102
RTVSPropertyOp26
 70
     1
102
RTVSPropertyOp27
 70
     1
102
RTVSPropertyOp28
 70
     1
102
RTVSPropertyOp29
 70
     1
102
RTVSPropertyOp30
 70
     1
102
RTVSPropertyOp31
 70
     1
102
RTVSPropertyOp32
 70
     1
102
RTVSPropertyOp33
 70
     1
102
RTVSPropertyOp34
 70
     1
102
RTVSPropertyOp35
 70
     1
102
RTVSPropertyOp36
 70
     1
102
RTVSPropertyOp37
 70
     1
102
RTVSPropertyOp38
 70
     1
102
RTVSPropertyOp39
 70
     1
102
RTVSPropertyOp40
 70
     1
102
RTVSPropertyOp41
 70
     1
102
RTVSPropertyOp42
 70
     1
102
RTVSPropertyOp43
 70
     1
102
RTVSPropertyOp44
 70
     1
102
RTVSPropertyOp45
 70
     1
102
RTVSPropertyOp46
 70
     1
102
RTVSPropertyOp47
 70
     1
102
RTVSPropertyOp48
 70
     1
102
RTVSPropertyOp49
 70
     1
102
RTVSPropertyOp50
 70
     1
102
RTVSPropertyOp51
 70
     0
102
RTVSPropertyOp52
 70
     0
102
RTVSPropertyOp53
 70
     1
102
RTVSPropertyOp54
 70
     1
102
RTVSPropertyOp55
 70
     1
102
RTVSPropertyOp56
 70
     1
102
RTVSPropertyOp57
 70
     1
102
RTVSPropertyOp58
 70
     1
102
RTVSPropertyOp59
 70
     1
102
RTVSPropertyOp60
 70
     1
102
RTVSPropertyOp61
 70
     1
102
RTVSPropertyOp62
 70
     1
  0
XRECORD
  5
BA15
102
{ACAD_REACTORS
330
BA14
102
}
330
BA14
100
AcDbXrecord
280
     1
102
RTVSPost2010Prop28
280
     0
102
RTVSPost2010PropOp28
 70
     1
102
RTVSPost2010Prop29
280
     1
102
RTVSPost2010PropOp29
 70
     1
102
RTVSPost2010Prop30
280
     1
102
RTVSPost2010PropOp30
 70
     1
102
RTVSPost2010Prop31
280
     0
102
RTVSPost2010PropOp31
 70
     1
102
RTVSPost2010Prop32
280
     0
102
RTVSPost2010PropOp32
 70
     1
102
RTVSPost2010Prop33
280
     0
102
RTVSPost2010PropOp33
 70
     1
102
RTVSPost2010Prop34
280
     0
102
RTVSPost2010PropOp34
 70
     1
102
RTVSPost2010Prop35
280
     0
102
RTVSPost2010PropOp35
 70
     1
102
RTVSPost2010Prop36
280
     0
102
RTVSPost2010PropOp36
 70
     1
102
RTVSPost2010Prop37
 90
       50
102
RTVSPost2010PropOp37
 70
     1
102
RTVSPost2010Prop38
140
0.0
102
RTVSPost2010PropOp38
 70
     1
102
RTVSPost2010Prop39
140
1.0
102
RTVSPost2010PropOp39
 70
     1
102
RTVSPost2010Prop40
 90
        0
102
RTVSPost2010PropOp40
 70
     1
102
RTVSPost2010Prop41ColorIndex
 90
       18
102
RTVSPost2010Prop41ColorRGB
 90
        0
102
RTVSPost2010PropOp41
 70
     1
102
RTVSPost2010Prop42
 90
       50
102
RTVSPost2010PropOp42
 70
     1
102
RTVSPost2010Prop43
 90
        3
102
RTVSPost2010PropOp43
 70
     1
102
RTVSPost2010Prop44ColorIndex
 90
        5
102
RTVSPost2010Prop44ColorRGB
 90
      255
102
RTVSPost2010PropOp44
 70
     1
102
RTVSPost2010Prop45
280
     0
102
RTVSPost2010PropOp45
 70
     1
102
RTVSPost2010Prop46
 90
       50
102
RTVSPost2010PropOp46
 70
     1
102
RTVSPost2010Prop47
 90
       50
102
RTVSPost2010PropOp47
 70
     1
102
RTVSPost2010Prop48
 90
       50
102
RTVSPost2010PropOp48
 70
     1
102
RTVSPost2010Prop49
280
     0
102
RTVSPost2010PropOp49
 70
     1
102
RTVSPost2010Prop50
 90
       50
102
RTVSPost2010PropOp50
 70
     1
102
RTVSPost2010Prop51ColorIndex
 90
      256
102
RTVSPost2010Prop51ColorRGB
 90
-16777216
102
RTVSPost2010PropOp51
 70
     0
102
RTVSPost2010Prop52
140
1.0
102
RTVSPost2010PropOp52
 70
     0
102
RTVSPost2010Prop53
 90
        2
102
RTVSPost2010PropOp53
 70
     1
102
RTVSPost2010Prop54
  1
strokes_ogs.tif
102
RTVSPost2010PropOp54
 70
     1
102
RTVSPost2010Prop55
280
     0
102
RTVSPost2010PropOp55
 70
     1
102
RTVSPost2010Prop56
140
1.0
102
RTVSPost2010PropOp56
 70
     1
102
RTVSPost2010Prop57
140
1.0
102
RTVSPost2010PropOp57
 70
     1
102
RTVSPropertyOp0
 70
     1
102
RTVSPropertyOp1
 70
     1
102
RTVSPropertyOp2
 70
     1
102
RTVSPropertyOp3
 70
     1
102
RTVSPropertyOp4
 70
     1
102
RTVSPropertyOp5
 70
     1
102
RTVSPropertyOp6
 70
     1
102
RTVSPropertyOp7
 70
     1
102
RTVSPropertyOp8
 70
     1
102
RTVSPropertyOp9
 70
     1
102
RTVSPropertyOp10
 70
     1
102
RTVSPropertyOp11
 70
     1
102
RTVSPropertyOp12
 70
     1
102
RTVSPropertyOp13
 70
     1
102
RTVSPropertyOp14
 70
     1
102
RTVSPropertyOp15
 70
     1
102
RTVSPropertyOp16
 70
     1
102
RTVSPropertyOp17
 70
     1
102
RTVSPropertyOp18
 70
     1
102
RTVSPropertyOp19
 70
     1
102
RTVSPropertyOp20
 70
     1
102
RTVSPropertyOp21
 70
     1
102
RTVSPropertyOp22
 70
     1
102
RTVSPropertyOp23
 70
     1
102
RTVSPropertyOp24
 70
     1
102
RTVSPropertyOp25
 70
     1
102
RTVSPropertyOp26
 70
     1
102
RTVSPropertyOp27
 70
     1
102
RTVSPropertyOp28
 70
     1
102
RTVSPropertyOp29
 70
     1
102
RTVSPropertyOp30
 70
     1
102
RTVSPropertyOp31
 70
     1
102
RTVSPropertyOp32
 70
     1
102
RTVSPropertyOp33
 70
     1
102
RTVSPropertyOp34
 70
     1
102
RTVSPropertyOp35
 70
     1
102
RTVSPropertyOp36
 70
     1
102
RTVSPropertyOp37
 70
     1
102
RTVSPropertyOp38
 70
     1
102
RTVSPropertyOp39
 70
     1
102
RTVSPropertyOp40
 70
     1
102
RTVSPropertyOp41
 70
     1
102
RTVSPropertyOp42
 70
     1
102
RTVSPropertyOp43
 70
     1
102
RTVSPropertyOp44
 70
     1
102
RTVSPropertyOp45
 70
     1
102
RTVSPropertyOp46
 70
     1
102
RTVSPropertyOp47
 70
     1
102
RTVSPropertyOp48
 70
     1
102
RTVSPropertyOp49
 70
     1
102
RTVSPropertyOp50
 70
     1
102
RTVSPropertyOp51
 70
     0
102
RTVSPropertyOp52
 70
     0
102
RTVSPropertyOp53
 70
     1
102
RTVSPropertyOp54
 70
     1
102
RTVSPropertyOp55
 70
     1
102
RTVSPropertyOp56
 70
     1
102
RTVSPropertyOp57
 70
     1
102
RTVSPropertyOp58
 70
     1
102
RTVSPropertyOp59
 70
     1
102
RTVSPropertyOp60
 70
     1
102
RTVSPropertyOp61
 70
     1
102
RTVSPropertyOp62
 70
     1
  0
XRECORD
  5
BA35
102
{ACAD_REACTORS
330
BA34
102
}
330
BA34
100
AcDbXrecord
280
     1
102
RTVSPost2010Prop28
280
     0
102
RTVSPost2010PropOp28
 70
     1
102
RTVSPost2010Prop29
280
     1
102
RTVSPost2010PropOp29
 70
     1
102
RTVSPost2010Prop30
280
     1
102
RTVSPost2010PropOp30
 70
     1
102
RTVSPost2010Prop31
280
     0
102
RTVSPost2010PropOp31
 70
     1
102
RTVSPost2010Prop32
280
     0
102
RTVSPost2010PropOp32
 70
     1
102
RTVSPost2010Prop33
280
     0
102
RTVSPost2010PropOp33
 70
     1
102
RTVSPost2010Prop34
280
     0
102
RTVSPost2010PropOp34
 70
     1
102
RTVSPost2010Prop35
280
     0
102
RTVSPost2010PropOp35
 70
     1
102
RTVSPost2010Prop36
280
     0
102
RTVSPost2010PropOp36
 70
     1
102
RTVSPost2010Prop37
 90
       50
102
RTVSPost2010PropOp37
 70
     1
102
RTVSPost2010Prop38
140
0.0
102
RTVSPost2010PropOp38
 70
     1
102
RTVSPost2010Prop39
140
1.0
102
RTVSPost2010PropOp39
 70
     1
102
RTVSPost2010Prop40
 90
        0
102
RTVSPost2010PropOp40
 70
     1
102
RTVSPost2010Prop41ColorIndex
 90
       18
102
RTVSPost2010Prop41ColorRGB
 90
        0
102
RTVSPost2010PropOp41
 70
     1
102
RTVSPost2010Prop42
 90
       50
102
RTVSPost2010PropOp42
 70
     1
102
RTVSPost2010Prop43
 90
        3
102
RTVSPost2010PropOp43
 70
     1
102
RTVSPost2010Prop44ColorIndex
 90
        5
102
RTVSPost2010Prop44ColorRGB
 90
      255
102
RTVSPost2010PropOp44
 70
     1
102
RTVSPost2010Prop45
280
     0
102
RTVSPost2010PropOp45
 70
     1
102
RTVSPost2010Prop46
 90
       50
102
RTVSPost2010PropOp46
 70
     1
102
RTVSPost2010Prop47
 90
       50
102
RTVSPost2010PropOp47
 70
     1
102
RTVSPost2010Prop48
 90
       50
102
RTVSPost2010PropOp48
 70
     1
102
RTVSPost2010Prop49
280
     0
102
RTVSPost2010PropOp49
 70
     1
102
RTVSPost2010Prop50
 90
       50
102
RTVSPost2010PropOp50
 70
     1
102
RTVSPost2010Prop51ColorIndex
 90
      256
102
RTVSPost2010Prop51ColorRGB
 90
-16777216
102
RTVSPost2010PropOp51
 70
     0
102
RTVSPost2010Prop52
140
1.0
102
RTVSPost2010PropOp52
 70
     0
102
RTVSPost2010Prop53
 90
        2
102
RTVSPost2010PropOp53
 70
     1
102
RTVSPost2010Prop54
  1
strokes_ogs.tif
102
RTVSPost2010PropOp54
 70
     1
102
RTVSPost2010Prop55
280
     0
102
RTVSPost2010PropOp55
 70
     1
102
RTVSPost2010Prop56
140
1.0
102
RTVSPost2010PropOp56
 70
     1
102
RTVSPost2010Prop57
140
1.0
102
RTVSPost2010PropOp57
 70
     1
102
RTVSPropertyOp0
 70
     1
102
RTVSPropertyOp1
 70
     1
102
RTVSPropertyOp2
 70
     1
102
RTVSPropertyOp3
 70
     1
102
RTVSPropertyOp4
 70
     1
102
RTVSPropertyOp5
 70
     1
102
RTVSPropertyOp6
 70
     1
102
RTVSPropertyOp7
 70
     1
102
RTVSPropertyOp8
 70
     1
102
RTVSPropertyOp9
 70
     1
102
RTVSPropertyOp10
 70
     1
102
RTVSPropertyOp11
 70
     1
102
RTVSPropertyOp12
 70
     1
102
RTVSPropertyOp13
 70
     1
102
RTVSPropertyOp14
 70
     1
102
RTVSPropertyOp15
 70
     1
102
RTVSPropertyOp16
 70
     1
102
RTVSPropertyOp17
 70
     1
102
RTVSPropertyOp18
 70
     1
102
RTVSPropertyOp19
 70
     1
102
RTVSPropertyOp20
 70
     1
102
RTVSPropertyOp21
 70
     1
102
RTVSPropertyOp22
 70
     1
102
RTVSPropertyOp23
 70
     1
102
RTVSPropertyOp24
 70
     1
102
RTVSPropertyOp25
 70
     1
102
RTVSPropertyOp26
 70
     1
102
RTVSPropertyOp27
 70
     1
102
RTVSPropertyOp28
 70
     1
102
RTVSPropertyOp29
 70
     1
102
RTVSPropertyOp30
 70
     1
102
RTVSPropertyOp31
 70
     1
102
RTVSPropertyOp32
 70
     1
102
RTVSPropertyOp33
 70
     1
102
RTVSPropertyOp34
 70
     1
102
RTVSPropertyOp35
 70
     1
102
RTVSPropertyOp36
 70
     1
102
RTVSPropertyOp37
 70
     1
102
RTVSPropertyOp38
 70
     1
102
RTVSPropertyOp39
 70
     1
102
RTVSPropertyOp40
 70
     1
102
RTVSPropertyOp41
 70
     1
102
RTVSPropertyOp42
 70
     1
102
RTVSPropertyOp43
 70
     1
102
RTVSPropertyOp44
 70
     1
102
RTVSPropertyOp45
 70
     1
102
RTVSPropertyOp46
 70
     1
102
RTVSPropertyOp47
 70
     1
102
RTVSPropertyOp48
 70
     1
102
RTVSPropertyOp49
 70
     1
102
RTVSPropertyOp50
 70
     1
102
RTVSPropertyOp51
 70
     0
102
RTVSPropertyOp52
 70
     0
102
RTVSPropertyOp53
 70
     1
102
RTVSPropertyOp54
 70
     1
102
RTVSPropertyOp55
 70
     1
102
RTVSPropertyOp56
 70
     1
102
RTVSPropertyOp57
 70
     1
102
RTVSPropertyOp58
 70
     1
102
RTVSPropertyOp59
 70
     1
102
RTVSPropertyOp60
 70
     1
102
RTVSPropertyOp61
 70
     1
102
RTVSPropertyOp62
 70
     1
  0
ENDSEC
  0
EOF
